Song name
# A B C D E F G H I J K L M N O P Q R S T U V W X Y Z

Franz Ferdinand - Take Me Out tab

----------------------------------
  Take Me Out - Franz Ferdinand
----------------------------------
Tabbed by: millarso (Jake Miller)
E-mail: millarso2.0@gmail.com

Tuning: Standard

Alright, I got sick of every other tab looking messy or having a bunch of
little things wrong, so I'm going to see if I can finally get a 5 star
version up here. Wish me luck.

Intro
Both Guitars
E|----------------------------------------------------|
B|----------------------------------------------------|
G|----------------------------------------------------|
D|----------------------------------------------------|
A|-777~---7-7-7-7-7-7-7-7-7-7-7-7-7-7-7-7-7-7-7-7-7-7-|
E|-000~---0-0-0-0-0-0-0-0-0-0-0-0-0-0-0-0-0-0-0-0-0-0-|

SECTION 1
Guitar 1 (Left Stereo)
E|---------------------------------------------------------------------|
B|---------------------------------------------------------------------|
G|---------------------------------------------------------------------|
D|-5-5-5-5-5-5-5-5-4-4-4-4-4-4-4-4-9--9--9--9--7-7-7-7-5-5-5-5-5-5-5-5-|
A|-7-7-7-7-7-7-7-7-5-5-5-5-5-5-5-5-10-10-10-10-9-9-9-9-7-7-7-7-7-7-7-7-|
E|---------------------------------------------------------------------|
||
Guitar 2 (Right Stereo)
E|-----------------------------------------------------------------|
B|-----------------------------------------------------------------|
G|-----------------------------------------------------------------|
D|-5-5-5-5-5-5-5-5-4-4-4-4-4-4-4-4/9-9-9-9-7-7-7-5-5-5-5-5-5-------|
A|-----------------------------------------------------------5-5-7-|
E|-----------------------------------------------------------------|

Guitar 1
E|---------------------------------------------------------------------|
B|---------------------------------------------------------------------|
G|---------------------------------------------------------------------|
D|-5-5-5-5-5-5-5-5-4-4-4-4-4-4-4-4-9--9--9--9--7-7-7-7-5-5-5-5-5-5-5-5-|
A|-7-7-7-7-7-7-7-7-5-5-5-5-5-5-5-5-10-10-10-10-9-9-9-9-7-7-7-7-7-7-7-7-|
E|---------------------------------------------------------------------|
||
Guitar 2
E|-----------------------------------------------------------------|
B|-----------------------------------------------------------------|
G|-----------------------------------------------------------------|
D|-5-5-5-5-5-5-5-5-4-4-4-4-4-4-4-4/9-9-9-9-7-7-7-5-5-5-5-5-5-5-5---|
A|---------------------------------------------------------------5-|
E|-----------------------------------------------------------------|

Guitar 1
E|---------------------------------------------------------------------|
B|---------------------------------------------------------------------|
G|---------------------------------------------------------------------|
D|-5-5-5-5-5-5-5-5-4-4-4-4-4-4-4-4-9--9--9--9--7-7-7-7-5-5-5-5-5-5-5-5-|
A|-7-7-7-7-7-7-7-7-5-5-5-5-5-5-5-5-10-10-10-10-9-9-9-9-7-7-7-7-7-7-7-7-|
E|---------------------------------------------------------------------|
||
Guitar 2
E|-----------------------------------------------------------------|
B|-----------------------------------------------------------------|
G|-----------------------------------------------------------------|
D|---5-5-5-5-5-5-5-4-4-4-4-4-4-4-4/9-9-9-9-7-7-7-5-5-5-5-5-5---5---|
A|-7---------------------------------------------------------5---5-|
E|-----------------------------------------------------------------|

Guitar 1
E|---------------------------------------------------------------------|
B|---------------------------------------------------------------------|
G|---------------------------------------------------------------------|
D|-5-5-5-5-5-5-5-5-4-4-4-4-4-4-4-4-9--9--9--9--7-7-7-7-5-5-5-5-5-5-5-5-|
A|-7-7-7-7-7-7-7-7-5-5-5-5-5-5-5-5-10-10-10-10-9-9-9-9-7-7-7-7-7-7-7-7-|
E|---------------------------------------------------------------------|
||
Guitar 2
E|-----------------------------------------------------------------|
B|-----------------------------------------------------------------|
G|-----------------------------------------------------------------|
D|---5-5-5-5-5-5-5-4-4-4-4-4-4-4-4/9-9-9-9-7-7-7-5-5-5-5-5-5-5-5-5-|
A|-7---------------------------------------------------------------|
E|-----------------------------------------------------------------|

SECTION 2
Guitar 1
E|-----------------------------------------------------------------|
B|-----------------------------------------------------------------|
G|-----------------------------------------------------------------|
D|-5-5-5-5-7-7-7---------------------------------------------------|
A|---------------7-7-7-7-7-7-7-7-7-5-5-5-5-7-7-5-7-----------------|
E|---------------------------------3-3-3-3-5-5-5-5-0-0-0-0-0-0-0-0-|
||
Guitar 2
E|-----------------------------------------------------------------|
B|-----------------------------------------------------------------|
G|-----------------------------------------------------------------|
D|-5-5-5-5-7-7-7---------------------------------------------------|
A|---------------7-7-7-7-7-7-7-7-7-5-5-5-5-7-7-5-7-7-7-7-7-7-7-7-7-|
E|-------------------------------------------------0-0-0-0-0-0-0-0-|

Guitar 1
E|-----------------------------------------------------------------|
B|-----------------------------------------------------------------|
G|-----------------------------------------------------------------|
D|-----------------------------------------------------------------|
A|-----------------5-5-5-5-5-5-5-5-----------------3-3-3-3-3-3-3-3-|
E|-3-3-3-3-3-3-3-3-----------------1-1-1-1-1-1-1-1-----------------|
||
Guitar 2
E|-----------------------------------------------------------------|
B|-----------------------------------------------------------------|
G|-----------------------------------------------------------------|
D|-----------------------------------------------------------------|
A|-5-5-5-5-5-5-5-5-5-5-5-5-5-5-5-5-3-3-3-3-3-3-3-3-3-3-3-3-3-3-3-3-|
E|-----------------------------------------------------------------|

Guitar 2
E|----------------------------------------------(slow-down)--------|
B|-----------------------------------------------------------------|
G|---------9-9-9-9-9-9-9-9-9-9-9-9-9-9-9-9-9-9-9-9-9-9-9-9-9-9-9-9-|
D|---------x-x-x-x-x-x-x-x-x-x-x-x-x-x-x-x-x-x-x-x-x-x-x-x-x-x-x-x-|
A|-7-7-7-7-7-7-7-7-7-7-7-7-7-7-7-7-7-7-7-7-7-7-7-7-7-7-7-7-7-7-7-7-|
E|-0-0-0-0-0-0-0-0-0-0-0-0-0-0-0-0-0-0-0-0-0-0-0-0-0-0-0-0-0-0-0-0-|

Guitar 2
E|----------------------------------------------(slow-down)--------|
B|---------------------------------8-8-8-8-8-8-8-8-8-8-8-8-8-8-8-8-|
G|-----------------9-9-9-9-9-9-9-9-9-9-9-9-9-9-9-9-9-9-9-9-9-9-9-9-|
D|-----------------x-x-x-x-x-x-x-x-x-x-x-x-x-x-x-x-x-x-x-x-x-x-x-x-|
A|-7-7-7-7-7-7-7-7-7-7-7-7-7-7-7-7-7-7-7-7-7-7-7-7-7-7-7-7-7-7-7-7-|
E|-0-0-0-0-0-0-0-0-0-0-0-0-0-0-0-0-0-0-0-0-0-0-0-0-0-0-0-0-0-0-0-0-|

SECTION 3
Guitar 1
E|----------------------|
B|----------------------|
G|-9---9---9---xx-99----|
D|-x---x---x---xx-xx-00-|x4
A|-7---7---7---xx-77-77-|
E|----------------------|
||
Guitar 2
E|----------------------|
B|-8---8---8-----8------|
G|-9---9---9---x-9--x---|
D|-x---x---x---x-x--x-0-|x4
A|-7---7---7---x-7--x-7-|
E|----------------------|

SECTION 4
Guitar 1
E|-----------------------------------------------------------------|
B|-----------------------------------------------------------------|
G|-7777xx7779-799--7777xx7779-799--5555xx5555xx55--77777-7---------|
D|--------------------------------------------------------9p7------|x2
A|-----------------------------------------------------------10-107|
E|-----------------------------------------------------------------|
||
Guitar 2
E|----------------------------------------------------------------|
B|-8---------------8---------------8---------------7777777777-----|
G|---9-9p7--7-9-9----9-9p7--7-9-9----9-9p7--7-9-9------------7777-|
D|--------9---------------9---------------9-----------------------|x2
A|----------------------------------------------------------------|
E|----------------------------------------------------------------|
||
Extra Guitar
E|-------------------------------------------------------------------|
B|-------------------------------------------------------------------|
G|-9---9-xx9-x9-x--9---9-xx9-x9-x------------------------------------|
D|-x---x-xxx-xx-x0-x---x-xxx-xx-x0-7---7-xx7-x7-x7s8-9---9-xx9-x9-x--|x2
A|-7---7-xx7-x7-x7-7---7-xx7-x7-x7-x---x-xxx-xx-xx---x---x-xxx-xx-x0-|
E|---------------------------------5---5-xx5-x5-x5s6-7---7-xx7-x7-x7-|

SECTION 5
Guitar 1
E|-----------------------------------------------------------------|
B|-----------------------------------------------------------------|
G|-7777xx7779-799--7777xx7779-799--5555xx5555xx55--77777-7---------|
D|--------------------------------------------------------9p7------|
A|-----------------------------------------------------------10-107|
E|-----------------------------------------------------------------|
||
Extra Guitar
E|-------------------------------------------------------------------|
B|-------------------------------------------------------------------|
G|-9---9-xx9-x9-x--xx9-9-xx9-x9-x------------------------------------|
D|-x---x-xxx-xx-x0-xxx-x-xxx-xx-x0-7---7-xx7-x7-x7s8-9---9-xx9-x9-x--|x2
A|-7---7-xx7-x7-x7-xx7-7-xx7-x7-x7-x---x-xxx-xx-xx---x---x-xxx-xx-x0-|
E|---------------------------------5---5-xx5-x5-x5s6-7---7-xx7-x7-x7-|

REPEAT SECTION 4

SECTION 6
Guitar 1
E|-----------------------------------------------------------------|
B|-----------------------------------------------------------------|
G|-7777xx7779-799--7777xx7779-799--5555xx5555xx55--77777-7---------|
D|--------------------------------------------------------9p7------|x2
A|-----------------------------------------------------------10-107|
E|-----------------------------------------------------------------|
||
Guitar 2
E|---------------------------------------------------------10------10-----|
B|-----12-----12--------12-----12--------12-----12------------------------|
G|-9h12---9h12---9--9h12---9h12---9--9h12---9h12---9--11h12---11h12--12p9-|
D|------------------------------------------------------------------------|x2
A|------------------------------------------------------------------------|
E|------------------------------------------------------------------------|
||
Extra Guitar
E|-------------------------------------------------------------------|
B|-------------------------------------------------------------------|
G|-9---9-xx9-x9-x--9---9-xx9-x9-x------------------------------------|
D|-x---x-xxx-xx-x0-x---x-xxx-xx-x0-7---7-xx7-x7-x7s8-9---9-xx9-x9-x--|x2
A|-7---7-xx7-x7-x7-7---7-xx7-x7-x7-x---x-xxx-xx-xx---x---x-xxx-xx-x0-|
E|---------------------------------5---5-xx5-x5-x5s6-7---7-xx7-x7-x7-|

SECTION 7
Both Guitars
E|-----------------------------------------|
B|-----------------------------------------|
G|-9---9---9--x-9--x---9---9---9--x9-9-9---|
D|-x---x---x--x-x--x-0-x---x---x--xx-x-x-0-|
A|-7---7---7--x-7--x-0-7---7---7--x7-7-7-0-|
E|-----------------------------------------|

Guitar 1 (Mostly in the right stereo actually)
E|--------------------------------------|
B|--------------------------------------|
G|--------------------------------------|
D|-7---5---4----------------------------|x4
A|-------------7--5--2-3--2-3--3-5--3-5-|
E|--------------------------------------|
||
Guitar 2
E|-x5--x5----x5--x5----x5--x5----x7--x7-|
B|-x5--x5----x5--x5----x5--x5----x7--x7-|
G|-x5--x5----x5--x5----x5--x5----x7--x7-|
D|--------------------------------------|x4
A|--------------------------------------|
E|--------------------------------------|

REPEAT SECTION 4
REPEAT SECTION 6

SECTION 8
Guitar 1
E|-------------------------------------------------|
B|-------------------------------------------------|
G|-7777xx7779-799--7777xx7779-799--5555xx5555xx557-|
D|-----------------------------------------------x-|
A|-----------------------------------------------5-|
E|-------------------------------------------------|
||
Guitar 2
E|----------------------------------------10------10-----|
B|-----12-----12--------12-----12------------------------|
G|-9h12---9h12---9--9h12---9h12---9--11h12---11h12--12p9-|
D|-------------------------------------------------------|
A|-------------------------------------------------------|
E|-------------------------------------------------------|
||
Extra Guitar
E|-----------------------------------------------------|
B|-----------------------------------------------------|
G|-9---9-xx9-x9-x--9---9-xx9-x9-x----------------------|
D|-x---x-xxx-xx-x0-x---x-xxx-xx-x0-7---7-xx7-x7-x7s8-9-|
A|-7---7-xx7-x7-x7-7---7-xx7-x7-x7-x---x-xxx-xx-xx---x-|
E|---------------------------------5---5-xx5-x5-x5s6-7-|

REPEAT SECTION 4
REPEAT SECTION 7

SECTION 9
Guitar 1
E|----------------------|
B|----------------------|
G|-9---9---9---xx-99----|
D|-x---x---x---xx-xx-00-|x3
A|-7---7---7---xx-77-77-|
E|----------------------|
||
Guitar 2
E|----------------------|
B|-8---8---8-----8------|
G|-9---9---9---x-9--x---|
D|-x---x---x---x-x--x-0-|x3
A|-7---7---7---x-7--x-7-|
E|----------------------|

Guitar 1
E|-------------------------|
B|-------------------------|
G|-9---9---9---xx-99-------|
D|-x---x---x---xx-xx-00----|
A|-7---7---7---xx-77-77-7~-|
E|----------------------0~-|
||
Guitar 2
E|-------------------------|
B|-8---8---8-----8---------|
G|-9---9---9---x-9--x------|
D|-x---x---x---x-x--x-0----|
A|-7---7---7---x-7--x-7-7~-|
E|----------------------0~-|

Alright, I haven't seen any of the GP versions of this, but
I think this should be more complete than the other text versions
and hopefully easy enough to navigate. Enjoy.
Please rate & comment.
Thanks,
millarso

************************************

| /   slide up
| \   slide down
| h   hammer-on
| p   pull-off
| ~   vibrato
| +   harmonic
| x   Mute note
| b   Bend
| pb  Pre-bend
| br  Bend release
| pbr Pre-bend release
| brb Bend release bend

************************************
Tap to rate this tab
# A B C D E F G H I J K L M N O P Q R S T U V W X Y Z