Song name
# A B C D E F G H I J K L M N O P Q R S T U V W X Y Z

Franz Ferdinand - Auf Achse tab

Tabbed by: Joe
Email: None

Band: Franz Ferdinand
Song: Auf Achse
Album: [Self Titled]
Tuning: Standard (EADGBe)

Intro/Verse/Outro (Repeat as necessary during the song)
e|-------------|-----------12-|-13--12-10----|-13--12-10-17-|
B|-13--12-10---|-13--12-10----|-----------10-|--------------|
G|-----------9-|--------------|--------------|--------------|
D|-------------|--------------|--------------|--------------|
A|-------------|--------------|--------------|--------------|
E|-------------|--------------|--------------|--------------|

e|-20--19-17----|-19--17-------|--------12----|-------12---------|
B|-----------17-|--------15-13-|-15--13----10-|-15--13---8-10----|
G|--------------|--------------|--------------|------------------|
D|--------------|--------------|--------------|------------------|
A|--------------|--------------|--------------|------------------|
E|--------------|--------------|--------------|------------------|

Chorus (it's either not there or so quiet that it's hard to hear anyway)

Postchorus x1 ("Now you wish she'd never...come back here again")
e|------------------------------|
B|-10---13---12---10---13---12--| (You can probably figure out 
G|------------------------------| where each of these go yourselves)
D|------------------------------|
A|------------------------------|
E|------------------------------|

Bridge x5 ("And now I'm nailed above you gushing from our sides")
e|----------------17-|
B|-15-17-18-17-15----| On the last repeat, play the 14 instead of 
G|---------------(14)| the 17 that is above it.
D|-------------------|
A|-------------------|
E|-------------------|

Leave any comments you have and enjoy!

| /  slide up
| \  slide down
| h  hammer-on
| p  pull-off
| ~  vibrato
| +  harmonic
| x  Mute note
Tap to rate this tab
# A B C D E F G H I J K L M N O P Q R S T U V W X Y Z