Song name
# A B C D E F G H I J K L M N O P Q R S T U V W X Y Z

Franz Ferdinand - 40 Ft tab

-----------------------------------------|
-----------------------------------------|
-----------------------------------------|   x4
-------1---------1-------1----------1----|
----3----3--2-2-------1-----1--2-2-------|
-----------------------------------------|

----------------------------------------------|
----------------------------------------------|
-----------3-2-3-2-3--------------------------|  x2
------4-5-------------------4-5---3-2-3-2-3---|
---3---------------------3--------------------|
----------------------------------------------|
Tap to rate this tab
# A B C D E F G H I J K L M N O P Q R S T U V W X Y Z