Song name
# A B C D E F G H I J K L M N O P Q R S T U V W X Y Z

Franz Ferdinand - This Fire tab

play first then second 5 times but on the 6 only play the first one
e|-11-xx-33-xx-55-xx-1010-xx-|--33-xx-55-xx-66-xx-1515-xx-------------------|
B|-33-xx-55-xx-66-xx-1010-xx-|--55-xx-66-xx-88-xx-1515-xx-------------------|
G|---------------------------|----------------------------------------------|
D|---------------------------|----------------------------------------------|
A|---------------------------|----------------------------------------------|
D|---------------------------|x6--------------------------------------------|x5

e|-----------------------------------------------------------------------|
B|-----------------------------------------------------------------------|
G|-----------------------------------------------------------------------|
D|-----------------------------------------------------------------------|
A|-22222222-00000000-----------------------------------------------------|
D|-22222222-00000000-----------------------------------------------------|x1
   ^___8__^ ^___8__^

e|-----------------------------------------------------------------------|
B|-----------------------------------------------------------------------|
G|-77-77-77-77-----------------------------------------------------------|
D|-77-77-77-77--88-88-88-88----------------------------------------------|
A|-55-55-55-55--88-88-88-88-7--------------------------------------------|
D|--------------88-88-88-88----------------------------------------------|x4

  1st guitar
(do the same thing as the intro)
e|-11-xx-33-xx-55-xx-1010-xx-|--33-xx-55-xx-66-xx-1515-xx-------------------|
B|-33-xx-55-xx-66-xx-1010-xx-|--55-xx-66-xx-88-xx-1515-xx-------------------|
G|---------------------------|----------------------------------------------|
D|---------------------------|----------------------------------------------|
A|---------------------------|----------------------------------------------|
D|---------------------------|x6--------------------------------------------|x5
  2nd guitar
e|--------------------------------------------------------------------------|
B|--------------------------------------------------------------------------|
G|--------------------------------------------------------------------------|
D|--------------------------------------------------------------------------|
A|-3-5--335-353-------------------------------------------------------------|
D|--------------------------------------------------------------------------|

e|-----------------------------------------------------------------------|
B|-----------------------------------------------------------------------|
G|-----------------------------------------------------------------------|
D|-----------------------------------------------------------------------|
A|-22222222-00000000-----------------------------------------------------|
D|-22222222-00000000-----------------------------------------------------|x1
   ^___8__^ ^___8__^

e|-----------------------------------------------------------------------|
B|-----------------------------------------------------------------------|
G|-77-77-77-77-----------------------------------------------------------|
D|-77-77-77-77--88-88-88-88----------------------------------------------|
A|-55-55-55-55--88-88-88-88-7--------------------------------------------|
D|--------------88-88-88-88----------------------------------------------|x4

|--77---77---77---77---88---88---88---88--------------------------|
|--88---88---88---88---99---99---99---99--------------------------|
|--99---99---99---99---99---99---99---99--------------------------|
|-----------------------------------------------------------------|
|-----------------------------------------------------------------|
|-----------------------------------------------------------------|x4

play first then second 5 times but on the 6 only play the first one
e|-11-xx-33-xx-55-xx-1010-xx-|--33-xx-55-xx-66-xx-1515-xx-------------------|
B|-33-xx-55-xx-66-xx-1010-xx-|--55-xx-66-xx-88-xx-1515-xx-------------------|
G|---------------------------|----------------------------------------------|
D|---------------------------|----------------------------------------------|
A|---------------------------|----------------------------------------------|
D|---------------------------|x6--------------------------------------------|x5
  2nd guitar
e|--------------------------------------------------------------------------|
B|--------------------------------------------------------------------------|
G|--------------------------------------------------------------------------|
D|--------------------------------------------------------------------------|
A|-3-5--335-353-------------------------------------------------------------|
D|--------------------------------------------------------------------------|

e|-----------------------------------------------------------------------|
B|-----------------------------------------------------------------------|
G|-77-77-77-77-----------------------------------------------------------|
D|-77-77-77-77--88-88-88-88----------------------------------------------|
A|-55-55-55-55--88-88-88-88-7--------------------------------------------|
D|--------------88-88-88-88----------------------------------------------|x4
go crazy!!! and then end on...
e|--------------------------------------------------------------------------|
B|--------------------------------------------------------------------------|
G|--7------------------------------------------------------------------------|
D|--7------------------------------------------------------------------------|
A|--5------------------------------------------------------------------------|
D|--------------------------------------------------------------------------|
Tap to rate this tab
# A B C D E F G H I J K L M N O P Q R S T U V W X Y Z