Guitaretab - guitar tabs
Song name
# A B C D E F G H I J K L M N O P Q R S T U V W X Y Z

Franz Ferdinand - Do You Want To tab

h - hammer on
p - pull off
b - bend string up
r - release bend
/ - slide up
 - slide down
x - mute string

Guitar One

Intro

e:------------------------------------------------------------|
b:------------------------------------------------------------|
g::--3/7-7-7-7-7-7-7/10-10-10-10-10-10-10-10/-7b-7b-7b-7h5--5-|
d:--------------------------------------------------------7---|
a:------------------------------------------------------------|
E:------------------------------------------------------------|

e:----------------------------------------------------------|
b:----------------------------------------------------------|
g:-7b-7b-7b-7h5---5-7b-7b-7b-7h5---5-7b-7b-7b-7h5---5-7-9---|
d:--------------7----------------7----------------7---------|
a:----------------------------------------------------------|
E:----------------------------------------------------------|

e:----------------------------------------------------------|
b:-----------------------------10----10-12bbbb-12-10--------|
g:-9-8-9-9-8-9-9-8-9-8-9-10-11----11-----------------11/----|
d:----------------------------------------------------------|
a:----------------------------------------------------------|
E:----------------------------------------------------------|

GUITAR TWO:
e:---------------------------------------------------------------------|
b:---------------------------------------------------------------------|
g:---------------------------------------------------------------------|
d:---------------------------------------------------------------------|
a:---------------------------------------------------------------------|
E:-6-6-6-6-6-6-6-6-6-6-6-6-6-6-6-6-5-5-3-5-8-0-5-5-3-5-8-0-5-5-3-5-8-0-|

e:-----------------------------------------------------|
b:-----------------------------------------------------|
g:-----------------------------------------------------|
d:-----------------------------------------------------|
a:------------------------------------------------10---|
E:-5-5-3-5-8-0--8-8-7-8-8-7-8-8-7-8-7-8-9-10--10-------|

(do-do bit for guitar: fun to play live)Guitar Two

e:----------------------------------------------------------------------|
b:----------------------------------------------------------------------|
g:10-9-10-10-9-10---------10-9-10-10-9-10--------10-9-----9-10-12-10----|
d:----------------12----------------------12-----------10------------10-|
a:-------------------10----------------------10-------------------------|
E:----------------------------------------------------------------------|

Main Riff (Guitar One during do-do bit, Both rest of time) x 4

e:-----------------------------------------------------------------------|
b:-----------------------------------------------------------------------|
g:-----------------------------------------------------------------------|
d:---5---5-x-x----x-x---5---5--x-x-x-x---5--5-x-x----x-x---5---5-x-x-x-x-|
a:---------x-x----x-x----------x-x-x-x--------x-x----x-x---------x-x-x-x-|
E:-3---3---x-x-6b-x-x-3---3----x-x-x-x-3--3---x-x-6b-x-x-3---3---x-x-x-x-|
[ Tab from: http://www.guitaretab.com/f/franz-ferdinand/62702.html ]
e:-----------------------------------------------------------------------|
b:-----------------------------------------------------------------------|
g:-----------------------------------------------------------------------|
d:---10---10-x-x----x-x-3-3-3-3-x-x--------------------------------------|
a:-----------x-x----x-x-x-x-x-x-x-x--------------------------------------|
E:-8----8----x-x-6b-x-x-1-1-1-1-x-x-1b-----------------------------------|

(well hes a friend etc etc) Verse x2 (Guitar one and Guitar Two)


e:-----------------------------------------------------------------------|
b:-----------------------------------------------------------------------|
g:-----------------------------------------------------------------------|
d:--------------------------------------5---5--------------5---5---------|
a:--0-2-3-0-----0-2-3----------0-2-3-------------------------------0-2-3-|
E:--------------------1--------------3----3---x-x-6b-x-x-3---3---x-------|

then main riff again x4

verse x1

Interlude x2:

e:------------------------------------------------------------------------|
b:------------------------------------------------------------------------|
g:------------------------------------------------------------------------|
d:-----5---------5-------------5---------5--------------------------------|
a:------------------------------------------------------------------------|
E:-3-3---3-3-3-3---3-0-1-2-3-3---3-3-3-3---3-0-1-2------------------------|

bridge:

GUITAR ONE:

a:----------------------------------------------------------------------3--|
E:-6-6-6-6-6-6-6-6-6-6-6-6-6-6-6-3-5--5--5-5-3-5--5--5-5-3-5--5-5-5-3-5----|

a:-------------------------------------------3------------------------------|
E:-5-3-5--5--5-5-3-5--5--5-5-3-5--5--5-5-3-5---5--8-8--8-8-8-6-8--8-8-8-6-8-|

a:------------------------------------------------------------------------------|
E:-8-8-8-6-8--6--8-8-10--10--10-10-8-10--10--10-10--8-10-10-10-10-8-10-10-10-10-|

GUITAR TWO:

E:-5555555555555555555555/8-8--8--8-8/55 (x2)

E:-8(x26)-9-10(x24)-10/---

Main Riff

Outro:(both)

e:-3--3--3--3------------------|
b:-3--3--3--3--5---------------|
g:-4--4--4--4--5---------------| x2
d:-5--5--5--5--5---------------|
a:-5--5--5--5--3---------------|
E:-3--3--3--3------------------|

e:------3-----------4------------5-5-5-----6--------6-6-6----------------|
b:-5-------5---6-6--6---6--------7-7-7---7-----7----8-8-8----8-----------|
g:-5-----------6-6--6------6-----7-7-7------7-------8-8-8-------------8--|x2
d:-5-----------6-6--6------------7-7-7--------------8-8-8----------------|
a:-3-----------4-4--4------------5-5-5--------------6-6-6----------------|
E:-----------------------------------------------------------------------|

e:--3------4------5-----6------3-------|
b:--5------6------7-----8------5-------|
g:--5--x6--6--x8--7-x8--8--x6--5--x2---|
d:--5------6------7-----8------5-------|
a:--3------4------5-----6------3-------|
E:-------------------------------------|

End on C(barred)

Fin

HAVE FUN, listen to CD for any timing difficulties!
Related for Do You Want To tab
Advertisement will be closed in 10 seconds