Song name
# A B C D E F G H I J K L M N O P Q R S T U V W X Y Z

Franz Ferdinand - Eleanor Put Your Boots On tab

Help us improve GuitareTab! Take a short survey!
hiya people. THIS IS THE INSTRUMENTAL BREAK BIT IN THE SONG!HOPE YOU LIKE IT!
Tuning:Standard(E,B,G,D,A,E)
Tabbed by butty
E-mail-carpetiles@hotmail.com

E|12-12-10-8-10-6-3-5-6-12-12-10-8-10-6-3-5-6-12-12-10-8-------------------|
B|-------------------------------------------------------12-12-10-8--------|
G|-------------------------------------------------------------------14-14-|
D|-------------------------------------------------------------------------|
A|-------------------------------------------------------------------------|
E|-------------------------------------------------------------------------|

E|-------------------|
B|-----12-12-10-8-10-|
G|12-11--------------|
D|-------------------|
A|-------------------|
E|-------------------|

then the second instrumental break ending is the same as the big top bit untilthe little 
so DONT PLAY THE LITTLE BIT, PLAY...

E|-------------------|
B|------12-12-10-8-7-|
G|12-11--------------|
D|-------------------|
A|-------------------|
E|-------------------|

Ta da.Easy as pie.
Related for Eleanor Put Your Boots On tab