Song name
# A B C D E F G H I J K L M N O P Q R S T U V W X Y Z

Franz Ferdinand - What You Meant tab

Tabbed by Jordan Reinders

This a really awesome song. Hope you like it.

Intro
e|----------------------------------|-------------------------------|--------|
B|----------------------------------|-------------------------------|--------|
G|----------------------------------|-------------------------------|--------|
D|------0-----0---------------------|--0-----0----------------------|--0-----|
A|-102---2-2---2-1-0-0-3--0-3/103-|-2---2-2---2-1-0-0-3--0-3/103-|2---2-2----|
E|----------------------------------|-------------------------------|--------|

e-----------------------|----------------------------------|
B-----------------------|----------------------------------|
G-----------------------|----------------------------------|
D-0---------------------|---0-----0------------------------|
A---2-1-0-0-3--0-3/103-|-2---2-2---2-1-0-0-3--0-3/103------|
E-----------------------|----------------------------------|

Verse
e|-------------------------------------------------------------------|
B|-------------------------------------------------------------------|
G|-0-------2-4-2------------2-4-2---0--------4-2-4------------2-4-2--|
D|----4--2-------2-0--4--2--------0----4--2--------2-0--4--2---------|
A|-------------------------------------------------------------------|
E|-------------------------------------------------------------------|


Pre-Chorus
e|---------------------------------------------------------------------------|
B|---------------------------------------------------------------------------|
G|---------------------------------------------------------------------------|
D|-5-5-5-5-5-5-5-5-5-5-5-5-5-5-5-5-10-10-10-10-10-10-10-10-10-10-10-10-10-10-|
A|-5-5-5-5-5-5-5-5-5-5-5-5-5-5-5-5-10-10-10-10-10-10-10-10-10-10-10-10-10-10-|
E|-3-3-3-3-3-3-3-3-3-3-3-3-3-3-3-3-8--8--8--8--8--8--8--8--8--8--8--8--8--8--|

e-------|
B-------|
G-------|
D-10-10-|
A-10-10-|
E-8--8--|

Chorus
e|--------------------------------------------------------------------------|
B|--------------------------------------------------------------------------|
G|--------------------------------------------------------------------------|
D|---------------------------------7--7-5-7-5-------------------------------|
A|-----------5--5-3-5--3-5-3------------------7-----------------------------|
E|-3--3-1-3------------------5-5--------------------------------------------|


Order:
Intro x1
Verse x1
Pre-Chorus x1
Chorus x2
Verse x1
Pre-chorus x1
Chorus x4
 (Bass does Verse)
Pre-Chorus x3
Intro x1
Chorus x4
Verse x1
Pre-Chorus x1

Please enjoy it. I sure did.

E-mail-heck_ya_23@hotmail.com
Tap to rate this tab
# A B C D E F G H I J K L M N O P Q R S T U V W X Y Z