Song name
# A B C D E F G H I J K L M N O P Q R S T U V W X Y Z

Franz Ferdinand - Eleanor Put Your Boots Back On tab

Help us improve GuitareTab! Take a short survey!
Piano intro to this elegant song

e-----------------------|
b-----------------------|
G-----------------------|
D-----------------------|
A-------2---5--2-----5--|
E-3-2-3----------3------|

or in the octave

e-----------------------|
b-----------------------|
G---------4---7--4------|
D---5-4-5-----------5---|
A---------------------5-|
E-----------------------|
Related for Eleanor Put Your Boots Back On tab