Song name
# A B C D E F G H I J K L M N O P Q R S T U V W X Y Z

Franz Ferdinand - Get Up And Use Me tab

Song - Get Up And Use Me
Artist - Franz Ferdinand
Tab By Hippie1969
Good Luck And Have Fun!

Intro
Bass
  Use me
G|---------------------|
D|---------------------|
A|----------9---9--9---|
E|-------------------9-|

Guitar 1
00.05 - 00.17
e|-----------------------------------|
B|-----------------------------------|
G|-----------------------------------|
D|------------7-7--------------------|
A|--9-9--9--9--------9-9--9--9-8-----|
E|-------------------------------9---|

Guitar 2
00.11 - 00.42(g-g-g-get upaa)  NOW FAST play again and again and again
e|-------------------------------|
B|-------------------------------|
G|-------------------------------|
D|---7-7-------7-----------------|
A|-7-----9-7-9---x-7-9-9--9--7-9-|
E|-------------------------------|
                              Maybe you can hear that when he plays the last 9,instantly goes 
                              on beginning 7 and starts over

e|-------------------------------|
B|-------------------------------|
G|-------------------------------| Sometimes plays like this
D|---7-7-------7-----------------|
A|-7-----9-7-9---9-7-9-9--9--7-9-|
E|-------------------------------|
----------------------------------------------------------------------------------------------
I think bass is repeating

G|---------------------|
D|---------------------|
A|----------9---9--9---|
E|-------------------9-|

Guitar 1 at 00.17 changes and it goes like this

       //   //
e|-----------------------|
B|-9---9----9----8-8-8---|
G|-10--10---10---8-8-8---|
D|-10--10---10---8-8-8---|
A|-8---8----8----8-8-8---|
E|-----------------------|

// = Hit very fast few times

Again guitar 1 changes in 00.23

e|----------|
B|-x-x-9----|
G|-x-x-10---|
D|-x-x-10---|
A|-x-x-8----|
E|----------|
Play until the 00.42(g-g-g-get upaa)

Guitar 2 also goes until the 00.42(g-g-g-get upaa)

----------------------------------------------------------------------------------------------

Use me!

Bass enters 00.44 and play like in the intro

G|---------------------|
D|---------------------|
A|----------9---9--9---|
E|-------------------9-|

Guitar 1 play this (00.44 - 46)

e|--5--R--|
B|--7--R--|
G|--6--R--|
D|--4--R--|
A|--------|
E|--------|

R = Rest(Stop all sound from guitar,use left or right hand to cover strings but dont hit them)

00.46 - 00.56 guitar 1 plays nothing than again 00.55 01.06 plays this

e|----------|
B|-x-x-9----|
G|-x-x-10---|
D|-x-x-10---|
A|-x-x-8----|
E|----------|


Guitar 2

00.46 - 01.07

e|-------------------------------|
B|-------------------------------|
G|-------------------------------|
D|---7-7-------7-----------------|
A|-7-----9-7-9---x-7-9-9--9--7-9-|
E|-------------------------------|

---------------------------------------------------------------------------------
01.09 - 01.20

Bass i think again the same

G|---------------------|
D|---------------------|
A|----------9---9--9---|
E|-------------------9-|


Guitar 1
       //   //
e|-----------------------|
B|-9---9----9----8-8-8---|
G|-10--10---10---8-8-8---|
D|-10--10---10---8-8-8---|
A|-8---8----8----8-8-8---|
E|-----------------------|

// = Hit very fast few times

Guitar 2

e|-------------------------------|
B|-------------------------------|
G|-------------------------------|
D|---7-7-------7-----------------|
A|-7-----9-7-9---x-7-9-9--9--7-9-|
E|-------------------------------|

--------------------------------------------------------------------------------------
01.20 - 01.40
Bass Reapeat i think

G|---------------------|
D|---------------------|
A|----------9---9--9---|
E|-------------------9-|


Guitar 1

e|----------|
B|-x-x-9----|
G|-x-x-10---|
D|-x-x-10---|
A|-x-x-8----|
E|----------|

Guitar 2

e|-------------------------------|
B|-------------------------------|
G|-------------------------------|
D|---7-7-------7-----------------|
A|-7-----9-7-9---x-7-9-9--9--7-9-|
E|-------------------------------|

-----------------------------------------------------------------------------------------------
BRIDGE

Bass

G|-----------|
D|-----------|
A|-----------|
E|--2--2-2---|

Guitar 1
01.47                 2X (Play 2 times)    Play until 01.58 (5X)
e|------------------||------------------||------------------|
B|------------------||------------------||------------------|
G|-6-6-6-6-5-5-5-x--||-6-6-6-6-5-6-5-x--||-6-5-6-5-6-5-6-5--|
D|------------------||------------------||------------------|
A|------------------||------------------||------------------|
E|------------------||------------------||------------------|

Guitar 2
01.47                 2X (Play 2 times)    play only 1 time  01.53 HOLD that 7 until 01.58
e|------------------||------------------||------------------||----------------------|
B|------------------||------------------||------------------||----------------------|
G|-6-6-6-6-5-5-5-x--||-6-6-6-6-5-6-5-x--||-6-5-6-5-6-5-6-5--||-6-5------------------|
D|------------------||------------------||------------------||-----7----------------|
A|------------------||------------------||------------------||----------------------|
E|------------------||------------------||------------------||----------------------|

-------------------------------------------------------------------------------------------------
01.58

Bass

G|-----------------|
D|-----------------|Repeat until end
A|-9---9---9---9---|
E|---9---9---9---9-|

Guitar 1 Waits for 02.10 than plays something like this until the end

e|----------|
B|-x-x-9----|
G|-x-x-10---|
D|-x-x-10---|
A|-x-x-8----|
E|----------|

guitar 2 until the end

e|-----------------------------------------|
B|-----------------------------------------|
G|-----------------------------------------|
D|-10-10-10---7---10--10-10---7-11-11-11---|
A|----------9---------------9--------------|
E|-----------------------------------------|

Well i guess thats it folks,hope you will enjoy this realy groovy song.
You can use this for any kind of performance(live,home,parties...).
You can correct any mistakes,if there are any :), just copy the correct ones
 and the wrong ones just enter what u think.
You can use this tab for Guitar Pro 4 format.
I will be more than happy to discuss anything,come on forum or
 just send email ill give you icq and lets chat :)

Tab By Hippie1969
E-mail - Hippie1969@net.hr

Oh and by the way if u get tab like this: e|--------------------------------
                                         -> -------|
when you download it just press Backspace  HERE(see the arrow) and add one -
Tap to rate this tab
# A B C D E F G H I J K L M N O P Q R S T U V W X Y Z