Song name
# A B C D E F G H I J K L M N O P Q R S T U V W X Y Z

Franz Ferdinand - You Could Have It So Much Better tab

You Could Have It So Much Better

by

FRANZ FERDINAND

^ - bend
/ - slide
~ - let ring
x - muted string

verse gtr 1
e---------------------------------------|
b---------------------------------------|
g--99999999-55555555--------------------|
d--99999999-55555555-44444444-77777777--|
a--77777777-33333333-44444444-77777777--|
e--------------------22222222-55555555--|
gtr 2
e----7--7-----3--3-----2--2-----5--5----|
b----8--8-----5--5-----2--2-----5--5----|
g----9--9-----5--5-----2--2-----6--6----|
d---------------------------------------|
a---------------------------------------|
e---------------------------------------|

Chorus gtr 2 (gtr 1 does verse, gtr 1)
e-----------    e-----------|
b-----------    b-----------|
g-----------    g-----------|
d--5-------- x3 d-7^-77777--|
a----7-5-7--    a-----------|
e-----------    e-----------|

e-----------    e-----------------|
b-----------    b-----------------|
g-----------    g----------7-9~-/-|
d--5-------- x3 d-7^-777-9--------|
a----7-5-7--    a-----------------|
e-----------    e-----------------|

pre-verse break
e---------------------------------------|
b---------------------------------------|
g---------------------------------------|
d---------------------------------------|
a-----------33333333--------------------|
e--00000000----------22222222/55555555--|

verse 2 fill
e--2~-2/5~--|
b--2~-2/5~--|
g-----------|
d-----------|
a-----------|
e-----------|

verse 2 riff after fill
e--------------------------------------------------|
b--------------------------------------------------|
g--------------------------------------------------|
d------------------------------------5555-4-5-4-5--|
a--77777-------77777-------77777-555---------------|
e--------7-5-7-------7-5-7-------------------------|

- gtr 1 plays verse, gtr 1

- gtr 2 plays pre-verse break

chord solo
e---8---------------|
b---8-------9-------|
g---9-------9-------|
d--10--x16--9--x16--|
a--10-------7-------|
e---8---------------|

e---------------------------------------------------|
b---------------------------------------------------|
g---------------------------------------------------|
d--44-xx-44-xx-44-xx-44-xx-77-xx-77-xx-77-xx-77-xx--|
a--44-xx-44-xx-44-xx-44-xx-77-xx-77-xx-77-xx-77-xx--|
e--22-xx-22-xx-22-xx-22-xx-55-xx-55-xx-55-xx-55-xx--|

e----------------------------------------|
b----------------------------------------|
g----------------------------------------|
d--5------------5-------------7^-777777--|
a---7-5-7-5-7-5--7-5-7-5-7-5-------------|
e----------------------------------------|

e--3------------3-------------3------3-5-5^--|
b---5-3-5-3-5-3--5-3-5-3-5-3---5-3-5---------|
g--------------------------------------------|
d--------------------------------------------|
a--------------------------------------------|
e--------------------------------------------|

bridge kinda thing

- gtr 1 plays verse, gtr 1

- gtr 2 plays pre-verse break

in the last few seconds of the song,
one guitar starts play this note over
and over again

e-000000000000(keep going)--|
b---------------------------|
g---------------------------|
d---------------------------|
a---------------------------|
e---------------------------|

end on
e-----
b-----
g--9--don't
d--9--let
a--7--ring
e-----

Tabbed by Sean Houghton. Contact at SeanHoughton2@hotmail.com for support or help.
Tap to rate this tab
 
# A B C D E F G H I J K L M N O P Q R S T U V W X Y Z