Song name
# A B C D E F G H I J K L M N O P Q R S T U V W X Y Z

Franz Ferdinand - Jeremy Fraser tab

It probably doesn't make any sense, but I don't
know how to show timing using tab. Oh well.

h=hammer on

E|----------------------------|
B|-0-0------------------------|
G|----2-0-2---------0h2-0h2-0-|
D|---------------0h2---------2|
A|----------------------------|
E|0---------------------------|

E|----------------------------|
B|0-----0---------0-----------|
G|-2-0-2-2-0-2-0-2-2-0--------|
D|--------------------2-------|
A|----------------------------|
E|----------------------------|
Tap to rate this tab
# A B C D E F G H I J K L M N O P Q R S T U V W X Y Z