Song name
# A B C D E F G H I J K L M N O P Q R S T U V W X Y Z

Franz Joseph Haydn - Minuet From Quartet Op 76 No 1 tab

Joseph Haydn (1732-1809)
Minuet from Quartet, Op. 76. No.1
Tablature - August 2002

This is another from Eliot Fisk's video. It was transcribed by Segovia from
its original key of G major. It's somewhat hard but is fun to play. The first
portion of the song is supposed to be played staccato. And the last two
sections are supposed to flow like a waltz. Good luck.

Standard Tuning
Time Signature: 3/4
Key: A major

Part 1:

    |       |       |        |       |       |        |       |       |
|--|------------------------|------------------------|---------------------|
|--|------------------------|------------------------|---------------------|
*--|------------------------|4-------4---------------|7-------7-------5----|
*--|7-------7-------4-------|4-----------------------|---------------------|
|7-|4-----------------------|5---------------7-------|7--------------------|
|--|5-----------------------|------------------------|4--------------------|

 |       |       |        |       |       |        |       |       |
|------------------------|------------------------|------------------------|
|------------------------|------------------------|7-------7-------5-------|
|6-------6---------------|5-------5-------6-------|8-------8-------6-------|
|------------------------|4---------------6-------|6---------------6-------|
|7---------------7-------|6---------------7-------|----------------4-------|
|5-----------------------|------------------------|8-----------------------|

 |       |       |        |       |       |        |       |       |
|------------------------|9---9---9---9---7-------|5-------0---------------|
|10------10------9-------|---10--10--10---9-------|7-------9-------7-------|
|8-------8-------9-------|9---------------9-------|6---------------8-------|
|------------------------|------------------------|7-------9---------------|
|----------------7-------|0---------------7-------|------------------------|
|7-----------------------|------------------------|----------------7-------|

 |       |       |
|------------------------|
|5-------5---------------|
|-----------------------*|
|6-------6--------------*|
|7-------7---------------|
|------------------------|

Part 2:

 |       |       |        |       |       |        |       |       |
|------------------------|------------------------|------------------------|
|------------------------|------------------------|------------------------|
|*-----------------------|----------------1-------|2-------2-------4-------|
|*-----------------------|3-------3-------0-------|2---------------6-------|
|----------------7-------|0---------------2-------|3---------------7-------|
|------------------------|0---------------0-------|0-----------------------|

 |       |       |        |       |       |        |       |       |
|------------------------|------------------------|------------------------|
|----------------4-------|5-------5-------10------|8-------6-------5-------|
|5-------5-------5-------|4---------------9-------|7-------5-------4-------|
|7---------------7-------|6---------------10------|9-------7-------5-------|
|6-----------------------|------------------------|------------------------|
|0-----------------------|0-----------------------|------------------------|

                                          legato___________________________
 |       |       |        |       |       |        |       |       |
|------------------------|------------------------|------------------------|
|----------------6-------|5-----------------------|------------------------|
|7-------7-------5-------|4-------7-------5-------|4-------4---------------|
|7---------------7-------|5-------7-------6-------|3-----------------------|
|8-----------------------|--------8-------7-------|5-----------------------|
|------------------------|------------------------|------------------------|

 ____________________
 |       |       |        |       |       |        |       |       |
|------------------------|------------------------|------------------------|
|------------------------|------------------------|10------10--------------|
|------------------------|------------------------|8-----------------------|
|7-------7---------------|6-------6---------------|10----------------------|
|6-----------------------|7-----------------------|7-----------------------|
|8---------------0-------|7---------------0-------|----------------0-------|

 |       |       |        |       |       |        |       |       |
|------------------------|------------------------|------------------------|
|9-------9---------------|------------------------|------------------------|
|9-----------------------|------------------------|4-------4---------------|
|9-----------------------|7-------7-------4-------|7-----------------------|
|7---------------7-------|4-----------------------|5---------------7-------|
|------------------------|5-----------------------|------------------------|

 |       |       |        |       |        |        |       |       |
|------------------------|------------------------|----------------2-------|
|------------------------|------------------------|5-----------------------|
|7-------7-------5-------|6-------6---------------|6---------------3-------|
|------------------------|------------------------|------------------------|
|7-----------------------|7-----------------------|0-------0---------------|
|4-----------------------|5---------------0-------|----------------2-------|

 |       |       |        |       |       |        |       |       |
|----------------10------|4---------------7-------|5-----------------------|
|3---------------7-------|5-----------------------|------------------------|
|4-----------------------|----------------7-------|6-----------------------|
|------------------------|0-------0---------------|----------------7-------|
|2-------2---------------|------------------------|4-------4---------------|
|----------------0-------|----------------0-------|------------------------|

 |       |       |        |       |       |        |       |       |
|------------------------|------------------------|------------------------|
|5-------5---------------|7-------7---------------|8-------8---------------|
|2-----------------------|------------------------|9-------9---------------|
|----------------7-------|7---------------7-------|7-----------------------|
|4-----------------------|5-----------------------|------------------------|
|------------------------|------------------------|9-----------------------|

 |       |       |        |       |       |        |       |       |
|----------------3-------|2-------4-------5-------|10--10--10--10--9-------|
|----------------5-------|3-------3---------------|9---9---9---9---10------|
|----------------2-------|2---------------6-------|------------------------|
|------------------------|0-----------------------|9---9---9---9-----------|
|----------------4-------|--------2-------0-------|7---7---7---7---9-------|
|------------------------|------------------------|------------------------|

 |       |       |        |       |       |        |       |       |
|7-------5---------------|------------------------|7-------7---------------|
|7-------5-------9-------|10------10--------------|9-------9---------------|
|7-------6-------7-------|9-------9---------------|9-------9---------------|
|0---------------9-------|11------11--------------|------------------------|
|--------7-------7-------|12------12--------------|7-------7---------------|
|------------------------|------------------------|------------------------|

 |       |       |
|9-------9---------------|
|10------10--------------|
|9-------9--------------*|
|-----------------------*|
|0-----------------------|
|------------------------|

Part 3:

 |       |       |        |       |       |        |       |       |
|------------------------|--------------------9---|12------5-------5-------|
|------------------------|--------5-/s-9--10------|------------------------|
|*-----------------------|----6-------------------|--------6-------6-------|
|*-----------------------|7-----------------------|------------------------|
|----------------7-------|0-----------------------|0-----------------------|
|------------------------|------------------------|------------------------|

 |       |       |        |       |       |        |       |       |
|5-h-7---0-------7-------|7-h-9---5---------------|--------------------9---|
|------------------------|------------------------|--------5-/s-9--10------|
|--------7-------7-------|--------6---------------|----6-------------------|
|------------------------|------------------------|7-----------------------|
|------------------------|0--------------<7>------|0-----------------------|
|0-----------------------|------------------------|------------------------|

 |       |       |        |       |       |        |       |       |
|12----------------------|----5---9-p-5-------0---|----9---6-h-7---4-h-5---|
|--------------------6---|7---------------7-------|0-----------------------|
|----------------6-------|------------------------|------------------------|
|--------3-h-7-----------|------------------------|7-------6-------4-------|
|0-----------------------|0-----------------------|------------------------|
|------------------------|------------------------|------------------------|

 |       |       |        |       |       |        |       |       |
|----7---4-h-5---2-h-4---|1-/s-2--4---5---7---9---|----------------7-/s-11-|
|0-----------------------|------------------------|--------7-h-10----------|
|------------------------|------------------------|----8-------------------|
|6-------4-------2-------|------------------------|------------------------|
|------------------------|0-----------------------|------------------------|
|------------------------|------------------------|7-----------------------|

 |       |       |
|12=========-------------|
|------------------------|
|13=========------------*|
|-----------------------*|
|------------------------|
|0==========-------------|

Part 4:

 |       |       |        |       |       |        |       |       |
|----------------12------|10-p-7------0-----------|----------------5-------|
|------------------------|--------9---------------|------------------------|
|*-----------------------|----------------7-p-4---|------------------------|
|*-----------------------|------------------------|7-------7---------------|
|------------------------|------------------------|0-----------------------|
|------------------------|0-----------------------|------------------------|

 |       |       |        |       |       |        |       |       |
|2-h-3---0---------------|------------------------|--------6-h-7---9-h-10--|
|----------------9-------|6-h-7---3-------7-------|6-h-7-------------------|
|2-----------------------|------------------------|------------------------|
|------------------------|7-----------------------|0-----------------------|
|4-----------------------|5-----------------------|------------------------|
|------------------------|------------------------|------------------------|

 |       |       |        |       |       |        |       |       |
|9-h-10--6-h-7---9-h-10--|9-/s-10----14-p-10------|------------------------|
|------------------------|--------12----------12--|10-p9---7-----------0---|
|------------------------|------------------------|------------9-p-7-------|
|0-----------------------|0-----------------------|------------------------|
|------------------------|------------------------|------------------------|
|------------------------|------------------------|0-----------------------|

 |       |       |        |       |       |        |       |       |
|--------------------9---|12------5-------5-------|5-h-7---0-------7-------|
|--------5-/s-9--10------|------------------------|------------------------|
|----6-------------------|--------6-------6-------|--------7-------7-------|
|7-----------------------|------------------------|------------------------|
|0-----------------------|0-----------------------|------------------------|
|------------------------|------------------------|0-----------------------|

 |       |       |        |       |       |        |       |       |
|7-h-9---5---------------|----------------10------|14--10--17------17------|
|------------------------|----7---10-p-7------10--|------------------------|
|--------6---------------|7-----------------------|------------------------|
|--------------------7---|------------------------|0-----------------------|
|0---------------9-------|9-----------------------|------------------------|
|------------------------|------------------------|------------------------|

 |       |       |        |       |       |        |       |       |
|----------------0-------|9-------0-------0-------|--------2---------------|
|------------2-------10--|----10------2-------2---|0-h-3-------3-----------|
|--------2---------------|------------------------|----------------4-p-2---|
|----2-------------------|------------------------|0-----------------------|
|4-----------------------|0-----------------------|------------------------|
|------------------------|------------------------|------------------------|

 |       |       |        |       |       |        |       |       |
|------------------------|------------------------|------------------------|
|----7---4-h-5---2-h-3---|----5---2-h-3-----------|--------2-h-3---5-/s-7--|
|--------6-------4-------|--------4-------5-h-6---|3-h-4-------------------|
|------------------------|----------------7-------|0-----------------------|
|------------------------|------------------------|------------------------|
|0-----------------------|0-----------------------|------------------------|

 |       |       |        |       |       | 
|------------------------|------------------------|
|--------0-------5---9---|10=========-------------|
|------------7-----------|-----------------------*|
|----6-------------------|11=========------------*|
|------------------------|0-=========-------------|
|0-----------------------|------------------------|
Tap to rate this tab
 
# A B C D E F G H I J K L M N O P Q R S T U V W X Y Z