Song name
# A B C D E F G H I J K L M N O P Q R S T U V W X Y Z

Franz Schubert - Ave Maria tab

Ave maria : Franz schubert
http://fr.wikipedia.org/wiki/Franz_Schubert
                               20sec
E--------------------------------------------------------------------------------------|
B--------------------------------------------------------------------------------------|
G--7~---10~---9~---8~---7~------/12-----11h12p11 12 12/16--14-12---14--16-14-12--------|
D--------------------------------------------------------------------------------------|
A--------------------------------------------------------------------------------------|
E--------------------------------------------------------------------------------------|
                        42sec
--------------------------------------------------------------------------------------|
--------------------------------------------------------------------------------------|
------------------------14/16~-16 16~-16-14-12-11h12p11------16 18 16~----11--14------|
---16-14h16p14-16-16/17--------------------------------14-----------------------------|
--------------------------------------------------------------------------------------|
--------------------------------------------------------------------------------------|

--------------------------------------------------------------------------------------------|
-----------------12-13-----------------12----------------------------12--15--12h15----------|
12h14p12-11--14---------14--11-12----------14-14~-----11----------12----------------13--14--|
----------------------------------------------------------12--14----------------------------|
--------------------------------------------------------------------------------------------|
--------------------------------------------------------------------------------------------|

--------------------------------------------------------------------------------------|
------------------------------------------------12------------------------------------|
--------11h12p11--------------14~-13-14---13-14----12-------14--13-14--17-16h17p16-14-|
-12-14------------14-12----12----------------------------12---------------------------|
--------------------------------------------------------------------------------------|
--------------------------------------------------------------------------------------|

-------------------------------------------------------------------------------------------|
-------------------------------------------------------------------------------------------|
-12~~~---12-14~-14/16--16-16h17p16-------16--19---16~~~-----14/16--14h16p14--12h14p12-11~--|
-------------------------------------19------------------14--------------------------------|
-------------------------------------------------------------------------------------------|
-------------------------------------------------------------------------------------------|

-----------------------------------------------------------------------------------|
-----------------------------------------------------------------------------------|
-12-14/15-14--12h14-14~---------------/12-11h12p11-12-12/16-14---12--14-16-14-12---|
-----------------------------------------------------------------------------------|
-----------------------------------------------------------------------------------|
-----------------------------------------------------------------------------------|

-----------------------------------------------------------------------------------|
-----------------------------------------------------------------------------------|
--------------------------14/16--16-16~---16-14--12--11h12p11-----16-18-16--11--14-|
--16-14h16p14--16--16/17--------------------------------------14-------------------|
-----------------------------------------------------------------------------------|
-----------------------------------------------------------------------------------|

-----------------------------------------------------------------------------------|
------------------12-13----------------12-----------------------12-15--12h15-------|
-12h14p12-11--14---------14-11-12----------14-14--11--------12---------------13-14-|
-----------------------------------------------------12-14-------------------------|
-----------------------------------------------------------------------------------|
-----------------------------------------------------------------------------------|

-----------------------------------------------------------------------------------|
-------------------------12--------------------------------------------------------|
-----14----13-14--13-14-----12------14---13-14--17-16h17p16-14---------------------|
-12------------------------------12------------------------------------------------|
-----------------------------------------------------------------------------------|
-----------------------------------------------------------------------------------|

------------------------------------------------------------------------------------|
------------------------------------------------------------------------------------|
-12~---12-14~--14/16--16-16h17p16-----16-19----16~~-----14/16-14h16p14-12h14p12-11~-|
-----------------------------------19----------------14-----------------------------|
------------------------------------------------------------------------------------|
------------------------------------------------------------------------------------|

-----------------------------------------------------------------------------------|
-----------------------------------------------------------------------------------|
-12-14/15-14-12h14-14~-------------------------------------------------------------|
-----------------------------------------------------------------------------------|
-----------------------------------------------------------------------------------|
-----------------------------------------------------------------------------------|
Tap to rate this tab
 
# A B C D E F G H I J K L M N O P Q R S T U V W X Y Z