Song name
# A B C D E F G H I J K L M N O P Q R S T U V W X Y Z

Frauenarzt - Das Geht Ab tab

Das Geht Ab
Frauenartzt ft Manny Marc

Ich weiß nich ob das stimmt, aber ich spiels immer so mit meiner band und es hört 
sich eig gut an!!!
don't know if this is correct, but we're playing it in our band like this

Intro 1: (im original eig nich dabei)(doesn't exist in the original)
E |--------------------------------------------|
H |-8--8-10-11--11-11-11-11-13-11-10--10-11-10-|
G |-7--7--9-10--10-10-10-10-12-10--9---9-10--9-|       2X
D |--------------------------------------------|
A |--------------------------------------------|
E |--------------------------------------------|

Intro 2:
E |---------------------------------|
H |---------------------------------|
G |-7-7-7-7-7-7-7-7-7-7-7-7-7-7-7-7-|       4X
D |-7-7-7-7-7-7-7-7-7-7-7-7-7-7-7-7-|
A |-5-5-5-5-5-5-5-5-5-5-5-5-5-5-5-5-|
E |---------------------------------|

Verse:
E |-----------------------------------------------------------------|
H |-----------------------------------------------------------------|
G |-7-7-7-7-7-7-7-7-3-3-3-3-3-3-3-3-----------------5-5-5-5-5-5-5-5-|      6X
D |-7-7-7-7-7-7-7-7-3-3-3-3-3-3-3-3-3-3-3-3-3-3-3-3-5-5-5-5-5-5-5-5-|
A |-5-5-5-5-5-5-5-5-1-1-1-1-1-1-1-1-3-3-3-3-3-3-3-3-3-3-3-3-3-3-3-3-|
E |---------------------------------1-1-1-1-1-1-1-1-----------------|

Refrain:
E |-----------------------------------------------------------|
H |-----------------------------------------------------------|
G |-7--7--7--7--10--10--10--10--10--10--10--10--12--12--12--9-|     4X
D |-7--7--7--7--10--10--10--10--10--10--10--10--12--12--12--9-|
A |-5--5--5--7---8---8---8---8---8---8---8---8--10--10--10--7-|
E |-----------------------------------------------------------|

Verse:
E |-----------------------------------------------------------------|
H |-----------------------------------------------------------------|
G |-7-7-7-7-7-7-7-7-3-3-3-3-3-3-3-3-----------------5-5-5-5-5-5-5-5-|      6X
D |-7-7-7-7-7-7-7-7-3-3-3-3-3-3-3-3-3-3-3-3-3-3-3-3-5-5-5-5-5-5-5-5-|
A |-5-5-5-5-5-5-5-5-1-1-1-1-1-1-1-1-3-3-3-3-3-3-3-3-3-3-3-3-3-3-3-3-|
E |---------------------------------1-1-1-1-1-1-1-1-----------------|

Refrain:
E |-----------------------------------------------------------|
H |-----------------------------------------------------------|
G |-7--7--7--7--10--10--10--10--10--10--10--10--12--12--12--9-|     4X
D |-7--7--7--7--10--10--10--10--10--10--10--10--12--12--12--9-|
A |-5--5--5--7---8---8---8---8---8---8---8---8--10--10--10--7-|
E |-----------------------------------------------------------|

Bridge:
E |---------------------------------|
H |---------------------------------|
G |-7-7-7-7-7-7-7-7-7-7-7-7-7-7-7-7-|       4X
D |-7-7-7-7-7-7-7-7-7-7-7-7-7-7-7-7-|
A |-5-5-5-5-5-5-5-5-5-5-5-5-5-5-5-5-|
E |---------------------------------|

Solo:
ka....hab mir da selbst son mini 0815 solo ausgedacht,das originale weiss ich nicht
don't know...i did a mini solo on my own, i don't know the original one
E |-----------------------------------------------------------------|
H |-----------------------------------------------------------------|
G |-----7---7-----------3---3---------------------------5---5-------|  2X
D |-7-7---7---7-7-3---3---3---3-3-3-----3---3-----5---5---5---5-5-5-|
A |---------------------------------3-3---3---3-3-------------------|
E |-----------------------------------------------------------------|

Rafrain:
E |-----------------------------------------------------------|
H |-----------------------------------------------------------|
G |-7--7--7--7--10--10--10--10--10--10--10--10--12--12--12--9-|     4X
D |-7--7--7--7--10--10--10--10--10--10--10--10--12--12--12--9-|
A |-5--5--5--7---8---8---8---8---8---8---8---8--10--10--10--7-|
E |-----------------------------------------------------------|

so..ich hoffe das half euch.....viel spass

hope it has helped you a bit.....good luck


http://de.wikipedia.org/wiki/Frauenarzt_%28Rapper%29
Tap to rate this tab
# A B C D E F G H I J K L M N O P Q R S T U V W X Y Z