Song name
# A B C D E F G H I J K L M N O P Q R S T U V W X Y Z

Frauenarzt - Das Geht Ab tab

hey!
this is my first tab so don't be so hard to me :D
I'm not sure about the refrain but there comes a guitar pro file soon =)


Tuning!: Dropped D:   E B G D A D



Intro 2: 4 times
E |---------------------------------|
B |---------------------------------|
G |-5-5-5-5-5-5-5-5-5-5-5-5-5-5-5-5-|       
D |-5-5-5-5-5-5-5-5-5-5-5-5-5-5-5-5-|
A |-3-3-3-3-3-3-3-3-3-3-3-3-3-3-3-3-|
D |---------------------------------|


Verse: 6 times
E |-----------------------------------------------------------------|
B |-----------------------------------------------------------------|
G |-5-5-5-5-5-5-5-5-----------------8-8-8-8-8-8-8-8-----------------|   
D |-5-5-5-5-5-5-5-5-6-6-6-6-6-6-6-6-8-8-8-8-8-8-8-8-5-5-5-5-5-5-5-5-|
A |-3-3-3-3-3-3-3-3-6-6-6-6-6-6-6-6-6-6-6-6-6-6-6-6-5-5-5-5-5-5-5-5-|
D |-----------------6-6-6-6-6-6-6-6-----------------5-5-5-5-5-5-5-5-|


Refrain: 4 times
E |-----------------------------------------------------------|
B |-----------------------------------------------------------|
G |-5-----5---5-----------------------------------------------|   
D |-5-----5---5--6----x-x-5-6-5---1-----1-1---5-----5-5-5-5---|
A |-3-----3---3--6----x-x-5-6-5---1-----1-1---5-----5-5-5-5---|
D |--------------6----x-x-5-6-5---1-----1-1---5-----5-5-5-5---|


Verse: 6 times
E |-----------------------------------------------------------------|
B |-----------------------------------------------------------------|
G |-5-5-5-5-5-5-5-5-----------------8-8-8-8-8-8-8-8-----------------|   
D |-5-5-5-5-5-5-5-5-6-6-6-6-6-6-6-6-8-8-8-8-8-8-8-8-5-5-5-5-5-5-5-5-|
A |-3-3-3-3-3-3-3-3-6-6-6-6-6-6-6-6-6-6-6-6-6-6-6-6-5-5-5-5-5-5-5-5-|
D |-----------------6-6-6-6-6-6-6-6-----------------5-5-5-5-5-5-5-5-|


Refrain: 4 times
E |-----------------------------------------------------------|
B |-----------------------------------------------------------|
G |-5-----5---5-----------------------------------------------|   
D |-5-----5---5--6----x-x-5-6-5---1-----1-1---5-----5-5-5-5---|
A |-3-----3---3--6----x-x-5-6-5---1-----1-1---5-----5-5-5-5---|
D |--------------6----x-x-5-6-5---1-----1-1---5-----5-5-5-5---|


Bridge1: 4 times 
E |---------------------------------|
B |---------------------------------|
G |-5-5-5-5-5-5-5-5-5-5-5-5-5-5-5-5-|       
D |-5-5-5-5-5-5-5-5-5-5-5-5-5-5-5-5-|
A |-3-3-3-3-3-3-3-3-3-3-3-3-3-3-3-3-|
D |---------------------------------|


Bridge2: 2 times
E |-----------------------------------------------------------------|
B |-----------------------------------------------------------------|
G |-5-------------5-----------------8-------------8-----------------|   
D |-5-------------5-6-------------6-8-------------8-5-----------5-5-|
A |-3-------------3-6-------------6-6-------------6-5-----------5-5-|
D |-----------------6-------------6-----------------5-----------5-5-|


Refrain: 4 times
E |-----------------------------------------------------------|
B |-----------------------------------------------------------|
G |-5-----5---5-----------------------------------------------|   
D |-5-----5---5--6----x-x-5-6-5---1-----1-1---5-----5-5-5-5---|
A |-3-----3---3--6----x-x-5-6-5---1-----1-1---5-----5-5-5-5---|
D |--------------6----x-x-5-6-5---1-----1-1---5-----5-5-5-5---|


hope  you enjoy playing this song =)
Tap to rate this tab
 
# A B C D E F G H I J K L M N O P Q R S T U V W X Y Z