Song name
# A B C D E F G H I J K L M N O P Q R S T U V W X Y Z

Frauenarzt - Disco Pogo tab

Tab by Flaschenbier

/=slide up
b=bend

Standard Tuning


Intro
                        "Was ist los es ist Party angesagt"
E|--------------------------------------------------------|
B|--------------------------------------------------------|
G|------------------------9---9---9--9--9-----------------|
D|---11---11-----7---7----9---9---9--9--9---9-9-9-9-9-----|
A|---11---11-----7---7----7---7---7--7--7---9-9-9-9-9-----|
E|---9----9------5---5----------------------7-7-7-7-7-----|


Verse 
  Repeat 4x
E|---------------------------------------------------------------|
B|---------------------------------------------------------------|
G|------------------------------------9--9--9-9-9b---------------|
D|---11--11--11-11-11b--7--7--7-7-7b--9--9--9-9-9b--9--9--9-9-9b-|
A|---11--11--11-11-11b--7--7--7-7-7b--7--7--7-7-7b--9--9--9-9-9b-|
E|---9---9---9--9--11b--5--5--5-5-5b----------------7--7--7-7-7b-|


Break/Bridge [1]
  "Wir lassen uns nicht verarschen,..."
E|---------------------------------------------|
B|---------------------------------------------|
G|-------------------------9---9---------------|
D|---11---11-----7---7-----9---9-----9---9-----|
A|---11---11-----7---7-----7---7-----9---9-----|
E|---9----9------5---5---------------7---7-----|


(Für den Part der jetzt kommt habe ich noch keine plausible Lösung gefunden.)


Break Bridge [2] (Nach dem "Di Di Di Di Di Di Di Disco Pogooo... ") 
  Part 1 Repeat 4x          Part 2       
E|-------------------------|------------------|
B|-------------------------|------------------|
G|-------------------------|------------------|  (Reihenfolge : part1 4x
D|--11-11-11-11-11-11-11/14|-7-7-7-7--9-9-9-9-|   dann          part2 1x
A|--11-11-11-11-11-11-11/14|-7-7-7-7--9-9-9-9-| und dann wieder von vorne)   
E|--9--9--9--9--9--9--9-/12|-5-5-5-5--7-7-7-7-|     

Insgesamt diese beiden Teile zusammen 4mal spielen dann kommt..

..Refrain

E|---------------------------------------------------------------|
B|---------------------------------------------------------------|
G|-------------------------------------9--9--9--9----------------|
D|---11--11--11--11-----7--7--7--7-----9--9--9--9-----9--9--9--9-|
A|---11--11--11--11-----7--7--7--7-----7--7--7--7-----9--9--9--9-|
E|---9---9---9---9------5--5--5--5--------------------7--7--7--7-|


Das sind die einzelnen Teile die Reihenfolge von ganzen Song geht so:

Intro
Vers
Bridge [1]
Bridge [2]
2x Refrain
Vers
Bridge [1]
Bridge [2]
2x Refrain
Tap to rate this tab
# A B C D E F G H I J K L M N O P Q R S T U V W X Y Z