Song name
# A B C D E F G H I J K L M N O P Q R S T U V W X Y Z

Frauenarzt - Disco Pogo tab

This song has a pretty crazy tuning
E
B
G
D
A                                
A <--one octave lower than the one above, yea its tuned REALLY low.

I got this all by ear so correct me in the parts that are wrong please, and listen 
to the song real closely and you can hear where the tabs come in with the timing 
of the song, enjoy!



Intro
E ------------------------------------------|
B ------------------------------------------|
G --13--13--9--9--16-16-16-16-11-11--11-11--|
D ------------------------------------------|
A ------------------------------------------|
A ------------------------------------------|

Riff 1
E ------------------------------------------|
B ------------------------------------------|
G -13-13-13/7--13-13-13/7--13-13-13/7--9-9/7|
D ------------------------------------------|
A ------------------------------------------|
A ------------------------------------------|

Riff 2
E ---------------------------------------------|
B ---------------------------------------------|
G -13-13---13--9-9---9--16-16---16--11-11---11-| ---Slide up on the last time
D ---------------------------------------------|
A ---------------------------------------------|
A ---------------------------------------------|

Riff 3
E ---------------------------------------------|
B ---------------------------------------------|
G ---------------------------------------------|
D ---------------------------------------------|
A -4-4-4-7--4-4-4-7--4-4-4-7--0-0-2-2----------|
A -4-4-4-7--4-4-4-7--4-4-4-7--0-0-2-2----------|

Riff 4
E --------------------------20-20-20-20---21//^-|
B -14-14-14-14-14-14-14-14----------------------|(-10-10-10-10-12-12-12-12-)
G ----------------------------------------------|            ^
D ----------------------------------------------|            ^
A ----------------------------------------------|  after every third time
A ----------------------------------------------|

Riff 5 
E -----------------------------|
B -----------------------------|
G -----------------------------|
D -----------------------------|
A -4-4--4-0-0--0-7-7--7-2-2--2-|
A -4-4--4-0-0--0-7-7--7-2-2--2-|

Repeat all the riffs.
Tap to rate this tab
 
# A B C D E F G H I J K L M N O P Q R S T U V W X Y Z