Guitaretab - guitar tabs
Song name
# A B C D E F G H I J K L M N O P Q R S T U V W X Y Z

Frauniebarger - A Proposal tab

Frauniebarger  A Proposal  - Rhythm Guitar
http://www.frauniebarger.com
Tabbed by Chase Garland

Listen for timing


E|----------------------------------------|
B|----------------------------------------|
G|----------------------------------------|
D|----------------------------------------|
A|4444444400000000444444440000000044444444|
E|----------------------------------------|

E|---------------------------------------------|
B|---------------------------------------------|
G|-------------------------------222-----------|
D|-------------------------------222-----------|
A|000000004444444400000000222222200033-32222222|
E|------------------------------------3--------|

E|--------------------------------------------|
B|--------------------------------------------|
G|222-----------222-----------222-------------|
D|222-----------222-----------222-------------|
A|00033-3222222200033-3222222200033-344444444-|
E|-----3-------------3-------------3----------|

E|------------------------------------------------|
B|------------------------------------------------|
G|------------------------------------------------|
D|44444444--------44444444--------44444444--------|
A|000000004444444400000000444444440000000044444444|
E|------------------------------------------------|

E|------------------------------------------------|
B|------------------------------------------------|
G|------------------------------------------------|
D|44444444--------44444444--------44444444--------|
A|000000004444444400000000444444440000000044444444|
E|------------------------------------------------|

E|-------------------------------------------------|
B|-------------------------------------------------|
G|-------------------------------------------------|
D|44444444--------44444444----------------44444444-|
A|000000004444444400000000202020204444444400000000-|
E|-------------------------------------------------|

E|------------------------------------------------|
B|------------------------------------------------|
G|------------------------------------------------|
D|--------44444444--------44444444----------------|
A|444444440000000044444444000000004444444420202020|
E|------------------------------------------------|

E|---------------------------------------------------|
B|---------------------------------------------------|
G|---------------------------------------------------|
D|--------555553333333555553333333555553333333555553-|
A|20202020555553555553555553555553555553555553555553-|
E|--------333333555553333333555553333333555553333333-|
[ Tab from: http://www.guitaretab.com/f/frauniebarger/116176.html ]
E|----------------------------------------------------|
B|----------------------------------------------------|
G|----------------------------------------------------|
D|333333--------44444444--------44444444--------44444-|
A|555553444444440000000044444444000000004444444400000-|
E|555553----------------------------------------------|

E|---------------------------------------------------|
B|---------------------------------------------------|
G|---------------------------------------------------|
D|444--------44444444----------------44444444--------|
A|000444444440000000020202020444444440000000044444444|
E|---------------------------------------------------|

E|------------------------------------------------|
B|------------------------------------------------|
G|------------------------------------------------|
D|44444444--------44444444------------------------|
A|000000004444444400000000444444442020202020202020|
E|------------------------------------------------|

E|-----------------------------------------------|
B|-----------------------------------------------|
G|-----------------------------------------------|
D|55555333333355555333333555553333333555553333333|
A|55555355555355555355553555553555553555553555553|
E|33333355555333333355553333333555553333333555553|

E|------------------------------------------------|
B|------------------------------------------------|
G|------------------------------------------------|
D|555553333333555553333333555553333333555553333333|
A|555553555553555553555553555553555553555553555555|
E|333333555553333333555553333333555553333333555555|

E|--------------------------------------------------|
B|--------------------------------------------------|
G|--------------------------------------------------|
D|3333----------------------------------------------|
A|55554444444400000000444444440000000044444444000000|
E|5555----------------------------------------------|

E|---------------------------------------------------|
B|---------------------------------------------------|
G|-------------------------222-----------222---------|
D|-------------------------222-----------222---------|
A|004444444400000000222222200033-3222222200033-322222|
E|------------------------------3-------------3------|

E|---------------------------------------------------|
B|---------------------------------------------------|
G|--222-----------222--------------------------------|
D|--222-----------222--------------------------------|
A|2200033-3222222200033-34444444400000000444444440000|
E|-------3-------------3-----------------------------|

E|------------------------------------|
B|------------------------------------|
G|------------------------------------|
D|------------------------------------|
A|000044444444000000004444444400000000|
E|------------------------------------|