Song name
# A B C D E F G H I J K L M N O P Q R S T U V W X Y Z

Freakhouse - No Way Down tab

-------------------------------------------------------------------------------
			     No Way Down - Freakhouse
-------------------------------------------------------------------------------
Tabbed by: jwawc
Email: bulldog5054@yahoo.com

Tuning: standard    key: Bm

     Intro: hint, all of these are eighth notes
e|---------------------------------------------------------------------------|
B|---------------------------------------------------------------------------|
G|-4--4--4--11-11-11-11-11-12-12-12-9--9--9--9--9--x4------------------------|
D|---------------------------------------------------------------------------|
A|-2--2--2--9--9--9--9--9--10-10-10-7--7--7--7--7----------------------------|
E|---------------------------------------------------------------------------|
      
    Verse: hint, all notes are quarter notes
      Bm              F#m             G               Em
e|------------------------------------------------------------------0--------|
B|----3-------------3-2-----------2---3---------------------------0----------|
G|------4---4-----4-----2---2---2---2---4---4-------4-----------0------------|
D|--------4-----4---------4---4-----------5-------5-------2---2--------x2----|
A|------------2---------------------------------5-------2---2----------------|
E|--------------------------------------------3-------0----------------------|

 Chorus: hint, eighth notes again

e|---------------------------------------------------------------------------|
B|---------------------------------------------------------------------------|
G|---------------------------------------------------------------------------|
D|-4--4--4--4--7--7--9--9--11-11-11-11-9--9--7--7--4--4--4--4--4--4--7--7--4-|
A|-2--2--2--2--5--5--7--7--9--9--9--9--7--7--5--5--2--2--2--2--2--2--5--5--2-|
E|---------------------------------------------------------------------------|

e|---------------------------------------------------------------------------|
B|---------------------------------------------------------------------------|
G|------------------------x4-------------------------------------------------|
D|-4--4--4--4--4--4--4-------------------------------------------------------|
A|-2--2--2--2--2--2--2-------------------------------------------------------|
E|---------------------------------------------------------------------------|

   Outro: hint, eighth notes again

e|---------------------------------------------------------------------------|
B|---------------------------------------------------------------------------|
G|-------------------------------------------------x4------------------------|
D|-11-11-11-6--6--6--6--6--7--7--7--4--4--4--4--4----------------------------|
A|-9--9--9--4--4--4--4--4--5--5--5--2--2--2--2--2----------------------------|
E|---------------------------------------------------------------------------|



                                     *He has some effects going during the chorus, might include:
                                                                                 -tremelo
| /  slide up                                                                    -delay
| \  slide down                                                                  -phaser 
| h  hammer-on                                                                   -wah
| p  pull-off
| ~  vibrato
| +  harmonic
| x  Mute note
===============================================================================
Tap to rate this tab
 
# A B C D E F G H I J K L M N O P Q R S T U V W X Y Z