Song name
# A B C D E F G H I J K L M N O P Q R S T U V W X Y Z

Freakhouse - Liars Inc tab

Freakhouse - Liars Inc.
Album:Beautiful Misery
Tabbed by: TYSOR
Song thats on all new Dell computers
Standard Tuning

Intro!
Lead Part Guitar 1

E|-------------------------------------------------------------|
B|-------------------------------------------------------------|
G|-------------------------------------------------------------|
D|---------12p9-9-11----------------12p9-9-11------------------| X2
A|---------------------12p9-9-11---------------12p9-9-11-------|
E|-------------------------------------------------------------|

Guitar 2

E|-------------------------------------------------------------|
B|-------------------------------------------------------------|
G|-------------------------------------------------------------|
D|---------11~-----------------------7~-------(9)(9)--11~--11--|X2
A|---------11~-----------------------7~-------(9)(9)--11~--11--|
E|----------9~-----------------------5~-------(7)(7)---9~---9--|
                                                            . 
                        
                    
Tap to rate this tab
# A B C D E F G H I J K L M N O P Q R S T U V W X Y Z