Guitaretab - guitar tabs
Song name
# A B C D E F G H I J K L M N O P Q R S T U V W X Y Z

Freakwater - Twisted Wire tab

-----------------------------------------------------------------------
			     Twisted Wire - Freakwater
-----------------------------------------------------------------------
Tabbed by: Eric Haaland


Intro: C C

C                    F        C
Your lovely form and fearsome eyes
          G7              C
Fuels our war, fuels our lies
C                    F       C
I dreamt of you in a feverís fire
            G        F                C
Your lovely form was draped in silver wire

You always say that stars align
Whenever your world bumps into mine
I dreamt of you, your hands were bound
I had to leave you just as you were found


Chorus:
C
Silver hoops of silver wire
      F                   C
Every man here was born a liar
C                F      C
Shackles made of silver wire
         G         F             C
Cut them loose and jump into the fire


Letís think about your final days
So many memories pass my way
Iíll take your smile but not your blame
Can you promise me that you wonít curse my name?

Itís in your hands but not in mine
Twisting wire, twisted lies (suits me fine)
I dreamt of you in a feverís fire
Your lovely form was draped in silver wire

Chorus




Intro:

                    Your lovely . . .
e|------------0-|------------0-|
B|--------1-----|--------1-----|
G|---0------0---|---0------0---|
D|--------------|--------------|
A|3-----3-------|3-----3-------|
E|--------------|--------------|


Verse:

  form,             And fearsome eyes,               Fuels our. . .
e|------------0-|--------1-----|------------0-|------------0-|
B|--------1-----|---1----1-----|--------1-----|--------1-----|
G|---0------0---|---0----------|---0------0---|---0------0---|
D|--------------|------3-------|--------------|--------------|
A|3-----3-------|3-------------|3-----3-------|3-----3-------|
E|--------------|--------------|--------------|--------------|

  war,                 Fuels our lies,            I dreamt of . . .
e|------------1-|------------1-|------------0-|------------0-|
B|--------0-----|--------0-----|--------1-----|--------1-----|
G|---0------0---|---0------0---|---0------0---|---0------0---|
D|--------------|--------------|--------------|--------------|
A|--------------|--------------|3-----3-------|3-----3-------|
E|3-----3-------|3-----3-------|--------------|--------------|
[ Tab from: http://www.guitaretab.com/f/freakwater/80521.html ]
  you,              in a feverís fire,            Your lovely . . .
e|------------0-|--------1-----|------------0-|------------0-|
B|--------1-----|---1----1-----|--------1-----|--------1-----|
G|---0------0---|---0----------|---0------0---|---0------0---|
D|--------------|------3-------|--------------|--------------|
A|3-----3-------|3-------------|3-----3-------|3-----3-------|
E|--------------|--------------|--------------|--------------|

  form      was draped in silver wire
e|------------3-|------------1-|------------0-|------------0-|
B|--------3-----|--------1-----|--------1-----|--------1-----|
G|---0------0---|---2------2---|---0------0---|---0------0---|
D|--------------|3-----3-------|--------------|--------------|
A|--------------|--------------|3-----3-------|3-----3-------|
E|3-----3-------|--------------|--------------|--------------|



Chorus:

 Silver hoops,            of silver wire                   every
e|------------0-|------------0-|------------0-|------------0-|
B|--------1-----|--------1-----|--------1-----|--------1-----|
G|---0------0---|---0------0---|---0------0---|---0------0---|
D|--------------|--------------|--------------|--------------|
A|3-----3-------|3-----3-------|3-----3-------|3-----3-------|
E|--------------|--------------|--------------|--------------|

  Man              was born a lair                   shackles
e|------------1-|------------1-|------------0-|------------0-|
B|--------1-----|--------1-----|--------1-----|--------1-----|
G|---2------2---|---2------2---|---0------0---|---0------0---|
D|3-----3-------|3-----3-------|--------------|--------------|
A|--------------|--------------|3-----3-------|3-----3-------|
E|--------------|--------------|--------------|--------------|

  Made              of silver wire                   cut them
e|------------0-|--------1-----|------------0-|------------0-|
B|--------1-----|---1----1-----|--------1-----|--------1-----|
G|---0------0---|---0----------|---0------0---|---0------0---|
D|--------------|------3-------|--------------|--------------|
A|3-----3-------|3-------------|3-----3-------|3-----3-------|
E|--------------|--------------|--------------|--------------|

  Loose      and jump into the fire
e|------------3-|------------1-|------------0-|------------0-|
B|--------3-----|--------1-----|--------1-----|--------1-----|
G|---0------0---|---2------2---|---0------0---|---0------0---|
D|--------------|3-----3-------|--------------|--------------|
A|--------------|--------------|3-----3-------|3-----3-------|
E|3-----3-------|--------------|--------------|--------------|


| /  slide up
| \  slide down
| h  hammer-on
| p  pull-off
| ~  vibrato
| +  harmonic
| x  Mute note
=======================================================================
Related for Twisted Wire tab