Guitaretab - guitar tabs
Song name
# A B C D E F G H I J K L M N O P Q R S T U V W X Y Z

Freaky Age - Where Do We Go Now tab

Hi, since there were almost no versions of this song for acoustic guitar, I
quikly listend and tabbed it down. I played it with the song and it sounded exactly the 
This is my first tab, so please comment!!!

Enjoy!


Intro:

(guitar 1)
------1----1------1------1------1-1---1-----1-1---1----|
----1----1-------1------1-------1-1---1-----1-1---1----|
-------------------------------------------------------|   X 3
-3-----32-----2-0----0-3-----3-1-----1---1-1----1---1--|
-------------------------------------------------------|
-------------------------------------------------------|

After three times guitar 2 comes in with something like this :
[ Tab from: http://www.guitaretab.com/f/freaky-age/115976.html ]
(guitar 2)
-------------------------------------------------------|
--6--------5-------3-----------------------------------|
----------------------------5--------3-----------------|   X 2
-------------------------------------------------------|
-------------------------------------------------------|

Then, i think guitar 2 plays the same buth with distortion
So something like this:

(guitar 2)
-------------------------------------------------------|
--6--------5-------3-----------------------------------|
----------------------------5--------3-----------------|   X 2
-------------------------------------------------------|
-------------------------------------------------------|

Then you just got to repeat al of this, until the chorus.

I hope you all can do something with this!
I'm sorry i couldn't tab down the chorus buth everyone who can play a little bit guitar 
find that out himself!!

Enjoy!
Related for Where Do We Go Now tab