Freaky Age - Excitement In The Morning Light tab

Song: Excitement In The Morning Light
Band: Freaky Age
Album: Living In Particular Ways (2010)

TAB BY FLOAT BAND.

INTRO
E|---------------------------------------------------------------------------|
B|---------------------------------------------------------------------------|
G|-------------16-16-16-16-------------------14-14-14-14----12---------------|
D|-14-14-14-------------------12-12-12-12------------------------------------|
A|---------------------------------------------------------------------------|
E|---------------------------------------------------------------------------|
      x8  time



SOLO
E|----------------------------------------------------------------------------|
B|----------------------------------------------------------------------------|
G|---------------------------------------------------7--9-7-------------------|
D|------7-5-7-5--------------7-5-7-5------------5-7-9--9----------------------|
A|--7---------------7-5-7-----------------7-5-7-------------------------------|
E|----------------------------------------------------------------------------|

E|---------------------------------------------------------------------------|
B|---------------------------------------------------------15---17-15--------|
G|-----14-12-14-12-----------14-12-14-12----------12-14-16---16--------------|
D|-14--------------14-12-14--------------14-12-14----------------------------|
A|---------------------------------------------------------------------------|
E|---------------------------------------------------------------------------|





Hook !!!!
C- Eb- Em -G -Bm -E
Tap to rate this tab
 
# A B C D E F G H I J K L M N O P Q R S T U V W X Y Z