Song name
# A B C D E F G H I J K L M N O P Q R S T U V W X Y Z

Freaky Age - Big Joke tab

Freaky Age-Big Joke
Song: Big Joke
Album: (From the heart of) Glitter Lake
Artist: Freaky Age
Tuning: Standard
Tabbed By: Tim Van de Voorde

Gtr I (E A D G B E) - 'Electric guitar-Lenny’
Gtr II (E A D G B E) - ‘Electric guitar-Mathias'

“You are supposed to know the way”
Gtr I
E|--8----------------------0--\-- /
B|--8----------------------0----- / \
G|--9----------------------0----- /  \ Listen to the song to get the rhythm! (2x)
D|--10---------------------2-- -- /
A|--10---------------------2----- /
E|--8----------------------0----- /

Gtr II
E|-------------------------7--|
B|-------------------------8--|
G|--10-12~--10-12b14r12~---9--| (2x)
D|-------------------------9--|
A|-------------------------7--|
E|----------------------------|


“Regret the things you haven’t said”
Gtr I
E|--8----------------------3--|
B|--8----------------------3--|
G|--9----------------------4--| (2x)
D|--10---------------------5--|
A|--10---------------------5--|
E|--8----------------------3--|

Gtr II
E|----------------------------------------------|
B|----------------------------------------------|
G|--4h5p4-----4h5p4---------4h5p4-----4h5p4-----| (2x)
D|--------2---------2-------------0---------0---|
A|----------------------------------------------|
E|----------------------------------------------|


“Have you heard the news today”
Gtr I
E|--7--3--8---5--|
B|--8--3--8---5--|
G|--9--4--9---5--| (2x)
D|--9--5--10--7--|
A|--7--5--10--7--|
E|-----3--8---5--|

Gtr II
E|-----------------------------12-12-10-------------------------------|
B|---12--12--12------12-10---12--------12--12-12---10-10--10-12-10----|
G|-12--12--12--12--12-----12----------------------------12--------12~-| (2x)
D|--------------------------------------------------------------------|
A|--------------------------------------------------------------------|
E|--------------------------------------------------------------------|


“And it’s all a big joke”
Gtr I
E|--7--3--7--|
B|--8--3--7--|
G|--9--4--7--|
D|--9--5--9--|
A|--7--5--9--|
E|-----3--7--|

Gtr II
E|---------------------------------------------------|
B|---13--13--13--13--12--12--12--12--12--12--12--12--|
G|-12--12--12--12--12--12--12--12--11--11--11--11----|
D|---------------------------------------------------|
A|---------------------------------------------------|
E|---------------------------------------------------|


“You are supposed to know the way”
Gtr I
E|--8----------------------0--\-- /
B|--8----------------------0----- / \
G|--9----------------------0----- /  \ Listen to the song to get the rhythm! (2x)
D|--10---------------------2-- -- /
A|--10---------------------2----- /
E|--8----------------------0----- /

Gtr II
E|-------------------------7--|
B|-------------------------8--|
G|--10-12~--10-12b14r12~---9--| (2x)
D|-------------------------9--|
A|-------------------------7--|
E|----------------------------|


“Regret the one’s you ever met”
Gtr I
E|--8----------------------3--|
B|--8----------------------3--|
G|--9----------------------4--| (2x)
D|--10---------------------5--|
A|--10---------------------5--|
E|--8----------------------3--|

Gtr II
E|----------------------------------------------|
B|----------------------------------------------|
G|--4h5p4-----4h5p4---------4h5p4-----4h5p4-----| (2x)
D|--------2---------2-------------0---------0---|
A|----------------------------------------------|
E|----------------------------------------------|


“Have you heard the news today”
Gtr I
E|--7--3--8---5--|
B|--8--3--8---5--|
G|--9--4--9---5--| (2x)
D|--9--5--10--7--|
A|--7--5--10--7--|
E|-----3--8---5--|

Gtr II
E|-----------------------------12-12-10-------------------------------|
B|---12--12--12------12-10---12--------12--12-12---10-10--10-12-10----|
G|-12--12--12--12--12-----12----------------------------12--------12~-| (2x)
D|--------------------------------------------------------------------|
A|--------------------------------------------------------------------|
E|--------------------------------------------------------------------|


“And it’s all a big joke”
Gtr I
E|--7--3--7--|
B|--8--3--7--|
G|--9--4--7--|
D|--9--5--9--|
A|--7--5--9--|
E|-----3--7--|

Gtr II
E|---------------------------------------------------|
B|---13--13--13--13--12--12--12--12--12--12--12--12--|
G|-12--12--12--12--12--12--12--12--11--11--11--11----|
D|---------------------------------------------------|
A|---------------------------------------------------|
E|---------------------------------------------------|


“O-o-o-o-ooh”
Gtr I
E|--8---5--7--7--|
B|--8---5--8--7--|
G|--9---5--9--7--| (4x)
D|--10--7--9--9--|
A|--10--7--7--9--|
E|--8---5-----7--|

Gtr II
E|---------------------12-10-|
B|---8-7-5-------------------|
G|-7-------7~--9~--12~-------| (4x)
D|---------------------------|
A|---------------------------|
E|---------------------------|

E|---------------------------|
B|---8-7-5-------------------|
G|-7-------7~--9~~~----------|
D|---------------------------|
A|---------------------------|
E|---------------------------|


“Have you heard the news today”
Gtr I
E|--7--3--8---5--|
B|--8--3--8---5--|
G|--9--4--9---5--| (2x)
D|--9--5--10--7--|
A|--7--5--10--7--|
E|-----3--8---5--|

Gtr II
E|-----------------------------12-12-10-------------------------------|
B|---12--12--12------12-10---12--------12--12-12---10-10--10-12-10----|
G|-12--12--12--12--12-----12----------------------------12--------12~-| (2x)
D|--------------------------------------------------------------------|
A|--------------------------------------------------------------------|
E|--------------------------------------------------------------------|


“And it’s all a big joke”
Gtr I
E|--7--3--7--|
B|--8--3--7--|
G|--9--4--7--|
D|--9--5--9--|
A|--7--5--9--|
E|-----3--7--|

Gtr II
E|---------------------------------------------------|
B|---13--13--13--13--12--12--12--12--12--12--12--12--|
G|-12--12--12--12--12--12--12--12--11--11--11--11----|
D|---------------------------------------------------|
A|---------------------------------------------------|
E|---------------------------------------------------|


“O-o-o-o-ooh”
Gtr I
E|--8---5--7--7--|
B|--8---5--8--7--|
G|--9---5--9--7--| (2x)
D|--10--7--9--9--|
A|--10--7--7--9--|
E|--8---5-----7--|

Gtr II
E|---------------------12-10~-|
B|---8-7-5--------------------|
G|-7-------7~--9~--12~--------|(4x)
D|----------------------------|
A|----------------------------|
E|----------------------------|

Tabbed by Tim Van de Voorde.
Tap to rate this tab
# A B C D E F G H I J K L M N O P Q R S T U V W X Y Z