Song name
# A B C D E F G H I J K L M N O P Q R S T U V W X Y Z

Freaky Age - As Long As You Want tab

Freaky Age-As long as you want
Song: As long as you want
Album: (From the heart of) Glitter Lake
Artist: Freaky Age
Tuning: Standard
Tabbed By: Tim Van de Voorde

Gtr I (E A D G B E) - 'Electric guitar-Lenny’
Gtr II (E A D G B E) - ‘Electric guitar-Mathias'

Intro
Gtr I
E|---------------------------------|
B|-------12-12-----14-14--14-14-12-|
G|-13-13-------11------------------| (4x)
D|---------------------------------|
A|---------------------------------|
E|---------------------------------|

Gtr II
   E     B     Abm    F#
E|-7-----7-----11-----9--|
B|-9-----7-----12-----11-|
G|-9-----8-----13-----11-| (4x)
D|-9-----9-----13-----11-|
A|-7-----9-----11-----9--|
E|-------7---------------|


“I should have told you twice”
Gtr I
E|---------------------------------|
B|-------12-12-----14-14--14-14-12-|
G|-13-13-------11------------------| Comes in after 4 times Gtr II
D|---------------------------------|
A|---------------------------------|
E|---------------------------------|

Gtr II
   Abm
E|-11-11--11-11--11-|
B|-12-12--12-12--12-|
G|-13-13--13-13--13-|  Listen for the rhythm
D|-13-13--13-13--13-|
A|-11-11--11-11--11-|
E|------------------|


“Did no one ever tell you”
Gtr I & II
   E     B     Abm    F#
E|-7-----7-----11-----9--|
B|-9-----7-----12-----11-|
G|-9-----8-----13-----11-| (4x)
D|-9-----9-----13-----11-|
A|-7-----9-----11-----9--|
E|-------7---------------|


“I should have warned you once”
Gtr II
   Abm
E|-11-11--11-11--11-|
B|-12-12--12-12--12-|
G|-13-13--13-13--13-|  Listen for the rhythm
D|-13-13--13-13--13-|
A|-11-11--11-11--11-|
E|------------------|

“Did no one ever tell you”
Gtr I & II
   E     B     Abm    F#
E|-7-----7-----11-----9--|
B|-9-----7-----12-----11-|
G|-9-----8-----13-----11-|
D|-9-----9-----13-----11-|
A|-7-----9-----11-----9--|
E|-------7---------------|


“Feel like I’m falling of a mountain”
Gtr I
E|---------------------------------|
B|-------12-12-----14-14--14-14-12-|
G|-13-13-------11------------------|
D|---------------------------------|
A|---------------------------------|
E|---------------------------------|

Gtr II
   E     B     Abm    F#
E|-7-----7-----11-----9--|
B|-9-----7-----12-----11-|
G|-9-----8-----13-----11-|
D|-9-----9-----13-----11-|
A|-7-----9-----11-----9--|
E|-------7---------------|


“You’ll be fine”
Gtr I
E|----------------------------------------------|
B|--12--12--12--12--12---12---12---12---12---11-|
G|-9---9---8---8---8---13---13---11---11---11---| (2x)
D|----------------------------------------------|
A|----------------------------------------------|
E|----------------------------------------------|

E|---------------------------|
B|---------------------------|
G|---------------------------|
D|---------------------------|
A|---------------------------|
E|--\\\\\\\\\\\\\\\\\\\\\\\\-



“Did no one ever tell you”
Gtr I
E|---------------------------------|
B|-------12-12-----14-14--14-14-12-|
G|-13-13-------11------------------|
D|---------------------------------|
A|---------------------------------|
E|---------------------------------|


Gtr II
   E     B     Abm    F#
E|-7-----7-----11-----9--|
B|-9-----7-----12-----11-|
G|-9-----8-----13-----11-|
D|-9-----9-----13-----11-|
A|-7-----9-----11-----9--|
E|-------7---------------|

Tabbed by Tim Van de Voorde.
Tap to rate this tab
# A B C D E F G H I J K L M N O P Q R S T U V W X Y Z