Song name
# A B C D E F G H I J K L M N O P Q R S T U V W X Y Z

Freaky Age - Friendly Fire tab

Freaky Age-Friendly fire
Song: Friendly fire
Album: (From the heart of) Glitter Lake
Artist: Freaky Age
Tuning: Standard
Tabbed By: Tim Van de Voorde

Gtr I (E A D G B E) - 'Electric guitar-Lenny’
Gtr II (E A D G B E) - ‘Electric guitar-Mathias'

“Won’t you come and hold my friendly fire?”
Gtr I
E|-------------9----12---7---5-|
B|-------------10---14---9---5-|
G|-6-7-6-------11---14---9---6-| (4x)
D|-------9-7---11---14---9---7-|
A|-----------7-9----12---7---7-|
E|---------------------------5-|


“Just five seconds ago”
Gtr I
   C#m   E     F#m     Abm    C#m   D#m
E|-4-----7-----9-------11-----4-----6-|
B|-5-----9-----10------12-----5-----7-|
G|-6-----9-----11------13-----6-----8-|
D|-6-----9-----11------13-----6-----8-|
A|-4-----7-----9-------11-----4-----6-|
E|------------------------------------|


“I don’t believe anything”
Gtr II
E|-----------------------------------------|
B|-5---5---5---5---12----12----10----10----|
G|-7b9-7b9-7b9-7b9-14b16-14b16-12b14-12b14-| (4x)
D|-----------------------------------------|
A|-----------------------------------------|
E|-----------------------------------------|


“Won’t you come and hold my friendly fire?”
Gtr I
E|-------------9----12---7---5-|
B|-------------10---14---9---5-|
G|-6-7-6-------11---14---9---6-| (4x)
D|-------9-7---11---14---9---7-|
A|-----------7-9----12---7---7-|
E|---------------------------5-|


“Fifty-five seconds ago”
Gtr I
   C#m   E     F#m     Abm    C#m   D#m
E|-4-----7-----9-------11-----4-----6-|
B|-5-----9-----10------12-----5-----7-|
G|-6-----9-----11------13-----6-----8-|
D|-6-----9-----11------13-----6-----8-|
A|-4-----7-----9-------11-----4-----6-|
E|------------------------------------|


“I don’t believe anything”
Gtr II
E|-----------------------------------------|
B|-5---5---5---5---12----12----10----10----|
G|-7b9-7b9-7b9-7b9-14b16-14b16-12b14-12b14-| (4x)
D|-----------------------------------------|
A|-----------------------------------------|
E|-----------------------------------------|

Tabbed by Tim Van de Voorde.
Tap to rate this tab
# A B C D E F G H I J K L M N O P Q R S T U V W X Y Z