Song name
# A B C D E F G H I J K L M N O P Q R S T U V W X Y Z

Freaky Age - Never See The Sun tab

Freaky Age-Never see the sun
Song: Never see the sun
Album: Living in particular ways
Artist: Freaky Age
Tuning: Standard
Tabbed By: Tim Van de Voorde

Gtr I (E A D G B E) - 'Electric guitar-Lenny’
Gtr II (E A D G B E) - ‘Electric guitar-Mathias'

Intro
Gtr I
   C#m            A
E|----------------------|
B|----------------------|
G|-6-6--6-6--6-6--2-2-2-| (4x)
D|-6-6--6-6--6-6--2-2-2-|
A|----------------------|
E|----------------------|


“Tell me baby what it is”
Gtr I
E|---------------------------|
B|---9-----9-------9-----9---|
G|-6---6-9---9-8-------------| (8x)
D|---------------9---9-7---7-|
A|---------------------------|
E|---------------------------|

Gtr II (Comes in after 4 times, listen for the rhythm)
   C#m   E       B     A
E|-4-----7-------7-----5-----|
B|-5-----9-------7-----5-----|
G|-6-----9-------8-----6-----| (4x)
D|-6-----9-------9-----7-----|
A|-4-----7-------9-----7-----|
E|---------------7-----5-----|


“Think I’m happy, think I’m in between”
Gtr I
   F#m    A      E
E|-2------5------12---|
B|-2------5------12---|
G|-2------6------13---|
D|-4------7------14---|
A|-4------7------14---|
E|-2------5------12---|

Gtr II
   F#m    A      E
E|-9------12-----12---|
B|-10-----14-----12---|
G|-11-----14-----13---|
D|-11-----14-----14---|
A|-9------12-----14---|
E|---------------12---|


“Meet my friends at the corner of a cash machine”
Gtr I

E|---------------------------|
B|---9-----9-------9-----9---|
G|-6---6-9---9-8-------------| (4x)
D|---------------9---9-7---7-|
A|---------------------------|
E|---------------------------|

Gtr II
   C#m   E       B     A
E|-4-----7-------7-----5-----|
B|-5-----9-------7-----5-----|
G|-6-----9-------8-----6-----| (4x)
D|-6-----9-------9-----7-----|
A|-4-----7-------9-----7-----|
E|---------------7-----5-----|


“Think I’m happy, think I’m in between”
Gtr I
   F#m    A      E
E|-2------5------12---|
B|-2------5------12---|
G|-2------6------13---|
D|-4------7------14---|
A|-4------7------14---|
E|-2------5------12---|

Gtr II
   F#m    A      E
E|-9------12-----12---|
B|-10-----14-----12---|
G|-11-----14-----13---|
D|-11-----14-----14---|
A|-9------12-----14---|
E|---------------12---|


Interlude
Gtr I
   C#m            A
E|----------------------|
B|----------------------|
G|-6-6--6-6--6-6--2-2-2-| (4x)
D|-6-6--6-6--6-6--2-2-2-|
A|----------------------|
E|----------------------|

Gtr II
E|---------------------------|
B|-9--------------9----------|
G|-11b13~~--------13r11--9~~-|
D|---------------------------|
A|---------------------------|
E|---------------------------|


Solo
Gtr I
   F#m    A      E
E|-2------5------12---|
B|-2------5------12---|
G|-2------6------13---|
D|-4------7------14---|
A|-4------7------14---|
E|-2------5------12---|

Gtr II
   6x
E|-----------------------------------------------------------|
B|-9-------9-------------------------------------------------|
G|-11b13---11b13r11--9---------9----9-11b13------------------|
D|---------------------11-9-11---11--------------------------|
A|------------------------------------------11-9-7--9-11-9-7-|
E|-----------------------------------------------------------|

E|-12p9-9--12p9-9--12p9-9----9------|
B|------------------------12---12-9-|
G|----------------------------------|
D|----------------------------------|
A|----------------------------------|
E|----------------------------------|


“Wahow, I’ll never see the sun again”
Gtr I
   F#m    A      E
E|-2------5------12---|
B|-2------5------12---|
G|-2------6------13---|
D|-4------7------14---|
A|-4------7------14---|
E|-2------5------12---|

Gtr II
   F#m    A      E
E|-9------12-----12---|
B|-10-----14-----12---|
G|-11-----14-----13---|
D|-11-----14-----14---|
A|-9------12-----14---|
E|---------------12---|


Ending
Gtr I
   A         A
E|-19-----------|
B|-21--------17-|
G|-21---or---16-|
D|-21--------14-|
A|-19-----------|
E|--------------|



Tabbed by Tim Van de Voorde.
Tap to rate this tab
# A B C D E F G H I J K L M N O P Q R S T U V W X Y Z