Song name
# A B C D E F G H I J K L M N O P Q R S T U V W X Y Z

Fred Stobaugh - Oh Sweet Lorraine tab

 G                      C                       Am

-3----------3------------------------------------------------------------------|
------------------------3-----------3-----------0-----------0------------------|
-------------------------------------------------------------------------------|
-------------------------------------------------------------------------------|
---0-----0-----0-----------0-----0-----0-----------2-----2-----2---------------|
------3--------------3--------1--------------1--------1--------------1---------|
------------------3-----------------------0-----------------------0------------|


 D
-------------------------------------------------------------------------------|
-------------------------------------------------------------------------------|
-------------------------------------------------------------------------------|
-0-----------0-----------------------------------------------------------------|
----2-----2-----2--------------------------------------------------------------|
-------3--------------3--------------------------------------------------------|
-------------------2-----------------------------------------------------------|
Tap to rate this tab
# A B C D E F G H I J K L M N O P Q R S T U V W X Y Z