Song name
# A B C D E F G H I J K L M N O P Q R S T U V W X Y Z

Fred - Hot Trousers tab

Hot Trousers
FRED
Can't Stop, I'm Being Timed
http://fredtheband.com/framepage.htm

Intro:

GG
GG
GG
GG x2

Riff:
-----------------------------------------|
-----------------------------------------|
-----------------------------------------|
---------------3-5-3---------------------|
-------2-3-4-5---------------------------|
---3-3-----------------------------------| x8

Verse Lyrics/Chords:
GG                       GG
Those who dance to their own sweet beat
         GG                          GG
But it's hard enough gettin' by with two left feet!
GG                   GG
Truth be told it's a dodgey dance
       GG                      GG GG GG
And it makes this planet orbit 'round the sun!

Chorus:
   CC                      DD                             GG
I know deep inside you get down though your feet want for more!
   CC                  D
So dance like an uncle possessed

And burn up the floor!

Verse: (Same as previous)

Well the rhythmically challenged or the rhythmically blessed
Cos the only rhythm needed is the rhythm in your chest!
Steppin out of fashion out and standard out of time
You're a bad bad mover but I love you, YEAH

Chorus...
Drum Solo...
Chorus...

Bass notes of bridge:

--------------------------|
--------------------------|
--------------------------|
--------------------------|
----4--3--5---------------|
--3-----------------------|  x throughout the bridge


End Chorus:
  G
I know deep inside you get
C#/Db
down though your feet want for more!
                               C
                               So dance like an uncle possessed
D
And burn up the floor!
Tap to rate this tab
# A B C D E F G H I J K L M N O P Q R S T U V W X Y Z