Song name
# A B C D E F G H I J K L M N O P Q R S T U V W X Y Z

Freddie Aguilar - Nosi tab

Help us improve GuitareTab! Take a short survey!
          hello to all!!!!sana magustuhan nyo to   

          si aldem poh to sa buru-un hello alll!!!!!


    Intro 1.
        e |----------------------12---13----------|
        b |-------------15------------------------|
        g |---------------------------------------|
        d |---------------------------------------|
        a |---------------------------------------|
        E |---------------------------------------|

         
        e |----------------------12---13-----------------|
        b |-------------15-------------------12b--12-~~--|
        g |----------------------------------------------|
        d |----------------------------------------------|
        a |----------------------------------------------|
        E |----------------------------------------------|

          
        e |----------------------12---13----------|
        b |-------------15------------------------|
        g |---------------------------------------|
        d |---------------------------------------|
        a |---------------------------------------|
        E |---------------------------------------|


        e |----------------------12---13---------------|
        b |-------------15-------------------12b--15---|
        g |--------------------------------------------|
        d |--------------------------------------------|
        a |--------------------------------------------|
        E |--------------------------------------------|

          
        e |-----------------12-12-------12-----12------|
        b |---------15-------------15------------------|
          |--------------------------------------------|
          |--------------------------------------------|
          |--------------------------------------------|


         hwag mong pansinin.......
         ang naninira sayo..
         kung papatulan moy................

         nosi nosi balasi.... sino sino ba sila!!!!


         hehehehehhe lam nyo ba ung lyrics heheh d ko kac alam ehhh
         pls rate!!!!!!!!aldem_raw@yahoo.com  1st tym ko pohhhh!!!!
Related for Nosi tab