Guitaretab - guitar tabs
Song name
# A B C D E F G H I J K L M N O P Q R S T U V W X Y Z

Freddie Hubbard - Red Clay tab

---------------------------------------------------------------------
			     Red Clay  Freddie Hubbard
--------------------------------------------------------------------
Tabbed by: Nike-Man
Email:Nike-Man@comcast.net

Tuning:Standard

Please Rate!

Chords: C-7(11)  Bb-7(11)  Db7sus4  Eb7sus4  F7sus4  G7sus4

Bass Line:

e|-----------------|-----------|-------------|------------------|
B|-----------------|-----------|-------------|------------------|
G|-----------------|-----------|-----6-----8-|------10-------12-|
D|------10----10---|-----8-8-6-|---6-----8---|---10-------12----|
A|---10----10----8-|---8-------|-4-----6-----|-8-------10-------|
E|-8---------------|-6---------|-------------|------------------|

e|-----------------|-----------|-------------|----------------------|
B|-----------------|-----------|-------------|------------------13\--|
G|-----------------|-----------|-----6-----8-|------10-------12-----|
D|------10----10---|-----8-8-6-|---6-----8---|---10-------12--------|
A|---10----10----8-|---8-------|-4-----6-----|-8-------10-----------|
E|-8---------------|-6---------|-------------|----------------------|

Melody Section Order: [A] [A] [B] [B] [A] 

A Section:
[ Tab from: http://www.guitaretab.com/f/freddie-hubbard/103466.html ]
e|----|---------------------|----|----------------|------------------|
B|----|---------------------|----|----------------|------------------|
G|----|---------------------|----|----------------|-----------7-8-10-|
D|-10-|-10-8-10-8-----------|----|----------------|-10-----10--------|
A|----|----------10-8----8--|----|------9-11-8----|---11-8-----------|
E|----|---------------11----|-11-|-911--------11-|------------------|

e|-------------|--------------|
B|-------------|--------------|
G|-10-8--------|--------------|
D|------10-8---|--------------|
A|-----------8-|-10------8----|
E|-------------|----11-8---11-|

B Section:

e|---|----|-----|------|
B|---|----|-----|------|
G|---|----|-----|------|
D|---|----|---7-|-8-10-|
A|-8-|----|-9---|------|
E|---|-11-|-----|------|

e|---|----|-----|------|
B|---|----|-----|------|
G|---|----|-----|------|
D|---|----|---7-|-8-10-|
A|-8-|----|-9---|------|
E|---|-11-|-----|------|


Chords:

(x)= Root that is optional pending on whether you have a bass or not

  C-7(11)  Bb-7(11)  Db7sus4  Eb7sus4  F7sus4  G7sus4
e|--8-------6---------4--------6--------8-------10--|
B|--8-------6---------5--------7--------9-------11--|
G|--10------8---------4--------6--------8-------10--|
D|--8-------6---------4--------6--------8-------10--|
A|-------------------(4)------(6)------(8)-----(10)-|
E|--------------------------------------------------|

Related for Red Clay tab