Song name
# A B C D E F G H I J K L M N O P Q R S T U V W X Y Z

Freddy Cannon - Tallahassee Lassie tab

My interpretation of the guitar intro. The song is played in Eb.


      Q     E   E   Q     E   E     E   E   E   E   Q     E   E   
E||--14----11--11--14----11--11--|-------------------------------|
B||------------------------------|---------11--13--14----11------|
G||------------------------------|-----12--------------------12--|
D||------------------------------|-------------------------------|
A||------------------------------|-------------------------------|
E||------------------------------|-------------------------------|


  E   Q     E   Q     Q        Q     Q     H                    
-----14----11--------------|--13----11----10--------|
---------------13----11----|------------------------|
---------------------------|------------------------|
---------------------------|------------------------|
---------------------------|------------------------|
---------------------------|------------------------|


Duration Legend
---------------
H - half
Q - quarter
E - 8th


An the lyrics:

Well, she comes from Tallahassee
She’s got a hi-fi chassis
Maybe looks a little sassy
But to me she’s real classy
Yeah, my Tallahassee Lassie
Down in FLA

Well, she’s rompin’ to The Drag
The Cha Cha, Rag-a-mop
Stompin’ to The Shag whoo
Rocks the Bunny Hop
Aw, aw, aw, aw

Well, she dances to The Bop
She dances to The Stroll
She dances to The Walk 
Whoo, she can rock ‘n’ roll

Tallahassee Lassie
She’s my Tallahassee Lassie
Yeah, my Tallahassee Lassie
Down in FLA, oh yeah

Instrumental

Well, she’s rompin’ to The Drag
The Cha Cha, Rag-a-mop
Stompin’ to The Shag
Rocks the Bunny Hop
Aw, aw, aw, aw

Well, she dances to The Bop
She dances to The Stroll
She dances to The Walk 
Whoo, she can rock ‘n’ roll
 
Tallahassee Lassie
Yeah my Tallahassee Lassie
She’s my Tallahassee Lassie 
Down in FLA

Come on baby
Come on sugar
Come on honey
Come on sugar

She’s my Tallahassee Lassie 
Down in FLA
Tap to rate this tab
# A B C D E F G H I J K L M N O P Q R S T U V W X Y Z