Guitaretab - guitar tabs
Song name
# A B C D E F G H I J K L M N O P Q R S T U V W X Y Z

Freddy Jones Band - In A Daydream Acoustic tab

In a Daydream
Lead Guitar
Freddy Jones Band 
(Acoustic Version)


E--------------------------------------------------------------------------|
B---8^10-10-10-8-8-8-------------------------------------------------------|
G---9^11-11-11-9-9-9---7----7---------------7------------------------------|
D---------------------------7h9-7-----------7h9-7-4h5-4--------4-5-5^7-----|
A----------------------------------10-9---------------------7--------------|
E--------------------------------------------------------------------------|

E--------------------------------------------------------7-5^2-------------|
B---8^10-10-10-8-8-8----------8-8h7-8-7------10^12-10----------------------|
G---9^11-11-11-9-9-9---7-9---------------7---------------------------------|
D--------------------------------------------------------------------------|
A--------------------------------------------------------------------------|
E--------------------------------------------------------------------------|
[ Tab from: http://www.guitaretab.com/f/freddy-jones-band/70167.html ]
E-------------------------------------------------9--9^7-7-7^--------------|
B------------------------------7-8-8h10-7-8-8^10-10-10^8-8-8^--------------|
G-4-4-4^7---6-7-7-7---6-6^7------------------------------------------------|
D-5-5-5^7---7-7-7-7--------------------------------------------------------|
A--------------------------------------------------------------------------|
E--------------------------------------------------------------------------|

E--^5-5-5^3-3-3^2-2-2^ 9--9--9^10-10-10^12-12-12^14-14---------------------|
B--^7-7-7^5-5-5^3-3-3^10-10-10^12-12-12^14-14-14^15-15---------------------|
G--------------------------------------------------------------------------|
D--------------------------------------------------------------------------|
A--------------------------------------------------------------------------|
E--------------------------------------------------------------------------|

^ - Slide up or down
h - hammer up or pull off going down


Itís close, and perhaps a cigar as well.

Enjoy.  Any feedbackÖlet me know.  Rock on Freddy!

bdemers@maine.rr.com
Related for In A Daydream Acoustic tab