Song name
# A B C D E F G H I J K L M N O P Q R S T U V W X Y Z

Frederic Francois Chopin - Op 69 No 2 - Valse In Bm tab

Chopin Waltz No 10 in B minor Op 69 No 2
Arranged by Chet Atkins
Tabbed by Jaime Monjeau

See below tab for legend

tuning: E A D G B E     key: Am     time: 3/4 

     H       Q       E  E   E  E   E  E     Q    Q    Q
E||----------0----|-----1p--0------------|------------0----|
B||---------------|------------0h--1-----|-----------------|
G||---------------|-------------------2--|--1----L---------|
D||---------------|----------------------|-------2---------|
A||---------------|--0-------------------|--2----L---------|
E||---------------|----------------------|-----------------|
0

  E  E   E  E  E  E     Q    Q    Q       E  E  E  E  E  E     Q    Q    Q
-----1p--0-----------|------------0----|-----------0--5--8--|--8---------8----|
---------------3--1--|-----------------|-----6--4-----------|-------4----L----|
------------4--L-----|--2---------L----|--------------------|-------5----L----|
---------------------|-------2----L----|--------------------|-------4----L----|
---------------------|--0--------------|--0-----------------|--0--------------|
--4---------------L--|-----------------|--------------------|-----------------|
3

  Q    Q    Q       E  E   E  E  E  E     E  E   E  E   E  E
------------7----|-----5p--4-----0-----|-----1p--0------------|
-------3----L----|------------6-----0--|--1---------0h--1-----|
-------4----L----|---------------------|-------------------2--|
-------3----L----|------------6--------|----------------------|
--0--------------|--0------------------|--0-------------------|
-----------------|---------------------|----------------------|
7

  Q    Q    Q       E  E   E  E  E  E     Q    Q    E  E
--0---------0----|-----1p--0--------L--|------------0--0--|
-----------------|--3---------0--3--1--|------------------|
--1----L---------|--1------------------|--2---------2--L--|
-------2---------|--0---------------L--|-------2-------L--|
--2----L---------|---------------------|--0------------L--|
-----------------|--0---------------L--|------------------|
10

   E   E  E  E   E  E     E   E  E  E  E  E     E   E  E  E  E  E
--12------8---------0--|--3p--1--------------|--1p--0--------------|
------12-----9--10-----|---------------2--3--|------------1--0--L--|
-----------------------|---------2--3-----L--|---------2--L--------|
-----------------------|--0---------------L--|------------------2--|
-----------------------|---------------------|--0---------L--------|
---8-------------L-----|---------------------|---------------0--L--|
13

       |------5-----|
  Q    E   E  E  E  E     E   E  E  E   E  E     Q    Q    Q
-----------------------|--0h--1--0------------|------------0----|
--------------------1--|------------0h--1-----|-----------------|
--2-----------1--2-----|-------------------2--|--1----L---------|
-------1h--2-----------|----------------------|-------2---------|
--0--------------------|--0-------------------|--2----L---------|
-----------------------|----------------------|-----------------|
16

  E  E   E  E  E  E     Q    Q    Q       E  E  E  E  E  E     Q    Q    Q
-----1p--0-----------|------------0----|--L--------0--5--8--|--8---------8----|
---------------3--1--|-----------------|-----6--4-----------|-------4----L----|
------------4--L-----|--2---------L----|--------------------|-------5----L----|
---------------------|-------2----L----|--------------------|-------4----L----|
---------------------|--0--------------|--0-----------------|--0--------------|
--4---------------L--|-----------------|--------------------|-----------------|
19

  Q    Q    Q       E  E   E  E  E  E     E  E   E  E   E  E
------------7----|-----5p--4-----0-----|-----1p--0------------|
-------3----L----|------------6-----0--|--1---------0h--1-----|
-------4----L----|---------------------|-------------------2--|
-------3----L----|------------6--------|----------------------|
--0--------------|--0------------------|--0-------------------|
-----------------|---------------------|----------------------|
23

  Q    Q    Q       E  E   E  E  E   E     Q    Q    E  E
--0---------0----|-----1p--0---------L--|------------0--0--|
-----------------|--3---------0--3p--1--|------------------|
--1----L---------|--1-------------------|--2---------2--L--|
-------2---------|--0----------------L--|-------2-------L--|
--2----L---------|----------------------|--0------------L--|
-----------------|--0----------------L--|------------------|
26

   E   E  E  E   E  E     E   E  E  E  E  E     E   E  E  E  E  E
--12------8---------0--|--3p--1--------------|--1p--0--------------|
------12-----9--10-----|---------------2--3--|------------1--0--L--|
-----------------------|---------2--3-----L--|---------2--L--------|
-----------------------|--0---------------L--|------------------2--|
-----------------------|---------------------|--0---------L--------|
---8-------------L-----|---------------------|---------------0--L--|
29

  Q.     E  E  E     Q    E  E  E  E     Q    E  E  E  E     Q    E  E  E  E
------------------|-------------------|--1-------0--------|--0----L-----------|
------------------|-------------0--3--|-------1-----0--1--|--3-------3-----0--|
--2---------2--1--|--1-------0--------|--0----0-----0--L--|-------0-----2-----|
---------2--------|-------3-----------|-------2-----2--L--|-------3--------L--|
--0---------------|--2----------------|--3-------------L--|-------------------|
------------------|-------------------|-------------------|--3-------------L--|
32

  Q    E  E  E  E     Q    E  E  E  E     Q    E  E  E  E     Q    E  E  E  E
-------------------|-------------------|--1-------0--------|--0----------------|
--3-------1--0-----|-------------0--3--|-------1-----0--1--|----------3-----0--|
-------0-----0--2--|--2-------0--------|-------0-----0--L--|-------2-----2-----|
-------2-----2-----|-------3-----------|-------2-----2--L--|-------3-----3-----|
--3----------------|--2----------------|--3-------------L--|-------------------|
-------------------|-------------------|-------------------|--1-------------L--|
36

  Q.     E  E  E     Q.     E  E  E     Q    E  E  E  E     Q    E  E  E  E
------------------|------------------|--1-------0-----L--|--0-------------L--|
---------0-----0--|------------0--3--|--3----1-----0--1--|--3-------3-----0--|
--1---------------|---------1--------|-------2-----2--L--|-------0-----2-----|
--2---------3-----|--2------------L--|-------2-----2--L--|--3----3-----------|
------------------|------------------|--0----------------|-------------------|
------------------|------------------|-------------------|--3-------------L--|
40

                                                                   ^
  Q    E  E  E  E     Q    E  E  E  E     Q    E  E  E  E     Q    Q
-------------------|-------------------|--1-------0--------|--0---------|
--3-------0--0-----|-------------0--3--|--1----1-----0--1--|-------3----|
-------0-----0--2--|--2-------0-----L--|-------0-----0--L--|-------2----|
-------2-----2-----|-------3-----------|-------2-----2--L--|-------3----|
--3----------------|--2----------------|--3-------------L--|------------|
-------------------|-------------------|-------------------|--1----L----|
44

    Q     Q       E  E  E  E  E  E     E  E  E  E  E  E     Q    Q    Q
--/12----10----|--8--7--6--5--------|--------0-----------|------------3----|
---------------|--------------9--8--|--7--6-----0--1-----|--0----L---------|
---------------|--------------------|-----------------2--|--1----L---------|
---------------|--------------------|--------------------|-------2---------|
---------------|--------------------|--------0-----------|--2----L---------|
---------------|--0-----------------|--------------------|-----------------|
48

  E  E  E  E  E   E     Q    Q    Q       E   E  E  E  E  E     Q    Q    Q
--2--1--0------------|------------3----|--2p--1-----0--5--8--|--8---------8----|
-----------0--3p--1--|-----------------|---------4-----------|-------4----L----|
---------------------|--2---------L----|---------------------|-------5----L----|
---------------------|-------2----L----|---------------------|-------4----L----|
---------------------|--0--------------|--0------------------|--0--------------|
--0---------------L--|-----------------|---------------------|-----------------|
52

  Q    Q    Q       E  E   E  E  E  E     E  E  E  E   E  E     Q    Q    Q
------------7----|-----5p--4-----0-----|-----1--0------------|------------0----|
-------3----L----|------------6-----0--|--1--------0h--1-----|-----------------|
-------4----L----|---------------------|------------------2--|--1----L---------|
-------3----L----|------------6--------|---------------------|-------2---------|
--0--------------|--0------------------|--0------------------|--2----L---------|
-----------------|---------------------|---------------------|-----------------|
56

  E  E  E  E  E   E     Q    Q    E  E      E   E  E  E   E  E
-----1--0---------L--|------------0--0--|--12------8---------0--|
--3--------0--3p--1--|------------------|------12-----9--10-----|
--1------------------|--2---------2--L--|-----------------------|
--0---------------L--|-------2-------L--|-----------------------|
---------------------|--0------------L--|-----------------------|
--0---------------L--|------------------|---8-------------L-----|
60

  E   E  E  E  E  E     E   E  E  E  E  E     H.
--3p--1--------------|--1p--0--------------|---------------|
---------------2--3--|------------1--0--L--|--1------------|
---------2--3-----L--|---------2--L--------|--2------------|
--0---------------L--|------------------2--|---------------|
---------------------|--0---------L--------|--0------------|
---------------------|---------------0--L--|---------------|
63

   ^
   E  E   E  E  E  E     Q    Q    Q       E  E   E  E  E  E
|---------------------|--2---------0----|---------------------|
|--2--3p--2-----2--3--|-------0---------|--2--3p--2-----2--3--|
|--2---------4--------|-------1---------|--2---------4--------|
|--2------------------|-----------------|--2------------------|
|--0------------------|-----------------|--0------------------|
|---------------------|--4----L---------|---------------------|
66

                    ^                                       ^
  Q    Q    Q       Q     E  E  Q        Q    Q    Q        Q     E  E  Q
--2---------0----|--0----/9--9--9~----|--7---------------|--------5--5--5~----|
-------0---------|--2-----------------|------------------|--------------------|
-------1---------|--2----/9--9--9~----|-------7----------|--6~----------------|
-----------------|--------------------|--7----6----6-----|--------------------|
-----------------|--0-----------------|------------------|--0-----------------|
--4----L---------|--------------------|--0---------------|--------------------|
69

                       ^
  Q    E  E  Q         E  E   E  E  E  E     Q    Q    Q
--4----------------|----------------------|--2---------0----|
-------------3~----|---2--3p--2-----2--3--|-------0---------|
-------4--4--4~----|---2---------4--------|-------1---------|
-------6--6--------|---2------------------|-----------------|
-------------------|---0------------------|-----------------|
--0----------------|----------------------|--4----L---------|
73

    ^                                     ^                   ^
  E  E   E  E  E  E     Q    Q    Q       Q     E  E  Q       Q     E  E  Q
---------------------|--2---------0----|--------5--5--5----|--4~--------------|
--2--3p--2-----2--3--|-------0---------|--------0--0--0----|------------------|
--2---------4--------|-------1---------|--------1--1--1----|--6~--------------|
--2------------------|-----------------|-------------------|------------------|
--0------------------|-----------------|--2----------------|--0---------------|
---------------------|--4----L---------|-------------------|------------------|
76

   ^                  ^    |--3-|            ^
  Q    E  E  Q       Q    Q    E    Q        E  E   E  E  E  E
-------2--2--2----|--0--------------------|---------------------|
------------------|--0--------------------|--2--3p--2-----2--3--|
--2---------------|--1----1----1--1g7~----|--2---------4--------|
--1---------------|--2--------------------|--2------------------|
--2---------------|-----------------------|--0------------------|
------------------|--0--------------------|---------------------|
80

                                          ^
  Q    Q    Q       E  E   E  E  E  E     Q     E  E  Q
--2---------0----|---------------------|--0----/9--9--9~---|
-------0---------|--2--3p--2-----2--3--|--2----------------|
-------1---------|--2---------4--------|--2----/9--9--9~---|
-----------------|--2------------------|-------------------|
-----------------|--0------------------|--0----------------|
--4----L---------|---------------------|-------------------|
83

                     ^
  Q    Q    Q        Q    E  E  Q       Q    E  E  Q        E  E  E  E  E  E
--7---------------|-------5--5--5~---|--4----------------|--------------------|
------------------|------------------|-------------3~----|--1--3--1--0--1--3--|
-------7----------|--6---------------|-------4--4--4~----|--2--4--2-----2--4--|
--7----6----6-----|------------------|-------6--6--------|-----------2--------|
------------------|--0---------------|-------------------|--0-----------------|
--0---------------|------------------|--0----------------|--------------------|
86

  Q    Q    Q       E  E  E  E  E  E     Q    Q    Q       Q    E  E  Q
--1---------0----|--------------------|--1---------0----|--0---------------|
-------3---------|--1--3--1--0--1--3--|-------3---------|-------3--3--1----|
-------1---------|--2--4--2-----2--4--|-------1---------|-------2----------|
-----------------|-----------2--------|-----------------|-------2----------|
-----------------|--0-----------------|-----------------|--0---------------|
--0--------------|--------------------|--0--------------|------------------|
90

                     ^
  Q    E  E  Q       Q    Q    Q       E  E   E  E   E  E     Q    Q    Q
------------------|------------0----|-----1p--0------------|------------0----|
--2----0--0-------|-------0---------|------------0h--1-----|-----------------|
-------2-----2----|--1--------------|-------------------2--|--1----L---------|
--1----1-----L----|-----------------|----------------------|-------2---------|
--2---------------|-----------------|--0-------------------|--2----L---------|
------------------|--0--------------|----------------------|-----------------|
94

  E  E   E  E  E  E     Q    Q    Q       E  E  E  E  E  E     Q    Q    Q
-----1p--0-----------|------------0----|--L--------0--5--8--|--8---------8----|
---------------3--1--|-----------------|-----6--4-----------|-------4----L----|
------------4--L-----|--2---------L----|--------------------|-------5----L----|
---------------------|-------2----L----|--------------------|-------4----L----|
---------------------|--0--------------|--0-----------------|--0--------------|
--4---------------L--|-----------------|--------------------|-----------------|
98

  Q    Q    Q       E  E   E  E  E  E     E  E   E  E   E  E
------------7----|-----5p--4-----0-----|-----1p--0------------|
-------3----L----|------------6-----0--|--1---------0h--1-----|
-------4----L----|---------------------|-------------------2--|
-------3----L----|------------6--------|----------------------|
--0--------------|--0------------------|--0-------------------|
-----------------|---------------------|----------------------|
102

  Q    Q    Q       E  E   E  E  E   E     Q    Q    E  E
--0---------0----|-----1p--0---------L--|------------0--0--|
-----------------|--3---------0--3p--1--|------------------|
--1----L---------|--1-------------------|--2---------2--L--|
-------2---------|--0----------------L--|-------2-------L--|
--2----L---------|----------------------|--0------------L--|
-----------------|--0----------------L--|------------------|
105

   E   E  E  E   E  E     E   E  E  E  E  E     E   E  E  E  E  E
--12------8---------0--|--3p--1--------------|--1p--0--------------|
------12-----9--10-----|---------------2--3--|------------1--0--L--|
-----------------------|---------2--3-----L--|---------2--L--------|
-----------------------|--0---------------L--|------------------2--|
-----------------------|---------------------|--0---------L--------|
---8-------------L-----|---------------------|---------------0--L--|
108

  Q.     E  E  E     Q    E  E  E  E     Q    E  E  E  E     Q    E  E  E  E
------------------|-------------------|--1-------0--------|--0----L-----------|
------------------|-------------0--3--|-------1-----0--1--|--3-------3-----0--|
--2---------2--1--|--1-------0--------|--0----0-----0--L--|-------0-----2-----|
---------2--------|-------3-----------|-------2-----2--L--|-------3--------L--|
--0---------------|--2----------------|--3-------------L--|-------------------|
------------------|-------------------|-------------------|--3-------------L--|
111

  Q    E  E  E  E     Q    E  E  E  E     Q    E  E  E  E     Q    E  E  E  E
-------------------|-------------------|--1-------0--------|--0----------------|
--3-------1--0-----|-------------0--3--|-------1-----0--1--|----------3-----0--|
-------0-----0--2--|--2-------0--------|-------0-----0--L--|-------2-----2-----|
-------2-----2-----|-------3-----------|-------2-----2--L--|-------3-----3-----|
--3----------------|--2----------------|--3-------------L--|-------------------|
-------------------|-------------------|-------------------|--1-------------L--|
115

  Q.     E  E  E     Q.     E  E  E     Q    E  E  E  E     Q    E  E  E  E
------------------|------------------|--1-------0-----L--|--0-------------L--|
---------0-----0--|------------0--3--|--3----1-----0--1--|--3-------3-----0--|
--1---------------|---------1--------|-------2-----2--L--|-------0-----2-----|
--2---------3-----|--2------------L--|-------2-----2--L--|--3----3-----------|
------------------|------------------|--0----------------|-------------------|
------------------|------------------|-------------------|--3-------------L--|
119

                                                                   ^
  Q    E  E  E  E     Q    E  E  E  E     Q    E  E  E  E     Q    Q
-------------------|-------------------|--1-------0--------|--0---------|
--3-------0--0-----|-------------0--3--|--1----1-----0--1--|-------3----|
-------0-----0--2--|--2-------0-----L--|-------0-----0--L--|-------2----|
-------2-----2-----|-------3-----------|-------2-----2--L--|-------3----|
--3----------------|--2----------------|--3-------------L--|------------|
-------------------|-------------------|-------------------|--1----L----|
123

    Q     Q       E  E  E  E  E  E     E  E  E  E  E  E     Q    Q    Q
--/12----10----|--8--7--6--5--------|--------0-----------|------------3----|
---------------|--------------9--8--|--7--6-----0--1-----|--0----L---------|
---------------|--------------------|-----------------2--|--1----L---------|
---------------|--------------------|--------------------|-------2---------|
---------------|--------------------|--------0-----------|--2----L---------|
---------------|--0-----------------|--------------------|-----------------|
127

  E  E  E  E  E   E     Q    Q    Q       E   E  E  E  E  E     Q    Q    Q
--2--1--0------------|------------3----|--2p--1-----0--5--8--|--8---------8----|
-----------0--3p--1--|-----------------|---------4-----------|-------4----L----|
---------------------|--2---------L----|---------------------|-------5----L----|
---------------------|-------2----L----|---------------------|-------4----L----|
---------------------|--0--------------|--0------------------|--0--------------|
--0---------------L--|-----------------|---------------------|-----------------|
131

  Q    Q    Q       E  E   E  E  E  E     E  E  E  E   E  E     Q    Q    Q
------------7----|-----5p--4-----0-----|-----1--0------------|------------0----|
-------3----L----|------------6-----0--|--1--------0h--1-----|-----------------|
-------4----L----|---------------------|------------------2--|--1----L---------|
-------3----L----|------------6--------|---------------------|-------2---------|
--0--------------|--0------------------|--0------------------|--2----L---------|
-----------------|---------------------|---------------------|-----------------|
135

  E  E  E  E  E   E     Q    Q    E  E      E   E  E  E   E  E
-----1--0---------L--|------------0--0--|--12------8---------0--|
--3--------0--3p--1--|------------------|------12-----9--10-----|
--1------------------|--2---------2--L--|-----------------------|
--0---------------L--|-------2-------L--|-----------------------|
---------------------|--0------------L--|-----------------------|
--0---------------L--|------------------|---8-------------L-----|
139

                                                   =
  E   E  E  E  E  E     E   E  E  E  E  E     Q    Q    Q
--3p--1--------------|--1p--0--------------|-------0---------||
---------------2--3--|------------1--0--L--|--1----1---------||
---------2--3-----L--|---------2--L--------|--2----2---------||
--0---------------L--|------------------2--|-------2---------||
---------------------|--0---------L--------|--0----0---------||
---------------------|---------------0--L--|-----------------||
142


Duration Legend
---------------
H  -  half note
Q  -  quarter note
E  -  8th note
.  -  note dotted
|-n-|  -  n-tuplets

Tablature Legend
----------------

||----  ---||
||----  ---||
||*---  --*||  repeat this section
||*---  --*||
||----  ---||
||----  ---||

L  -  tied note (note held)
h  -  hammer on
p  -  pull off
/  -  slide into from below, or out of upwards
g  -  grace note
^  -  ripple upwards (arpeggio)
~  -  vibrato
=  -  notes held for longer than their value (fermata)

Tap to rate this tab
# A B C D E F G H I J K L M N O P Q R S T U V W X Y Z