Song name
# A B C D E F G H I J K L M N O P Q R S T U V W X Y Z

Fredl Fesl - So Trolln Wir Uns tab

-------------------------------------------------------------------------------
			     So trolln wir uns - Fredl Fesl	
-------------------------------------------------------------------------------
Tabbed by: Peter Fischaleck
Email: fischi-AT-GMX.de	

Tuning: Standard


 C                           G           C                a                     
e|--------------0-----3-----|--3-----1-----0-----------|--------------------0-----|--1-----0-----------3-----|
B|--1--------3--------------|-----------------1-----3--|--1-----1-----3-----------|--------------3-----------|
G|-----0-----------0-----0--|-----0-----0--------0-----|-----2-----2-----2-----2--|-----2-----2-----0-----0--|
D|--------2-----------------|--------------------------|--------------------------|--0-----------------------|
A|--3-----------3-----------|--------------3-----------|--0-----------0-----------|--------------------------|
E|--------------------------|--3-----------------------|--------------------------|--------------3-----------|


e|--3-----1----------------|
B|--------------3-----0----|
G|-----0-----0-----0-----0-|
D|-------------------------|
A|-------------------------|
E|--3-----------3----------|


 C                           G           C              a           G  

e|--------------0-----3-----|--3-----1-----0-----------|--------------------------|--------3--1--0-----------|
B|--1--------3--------------|-----------------1-----3--|--1-----1-----1-----0-----|--1--------0--1-----------|
G|-----0-----------0-----0--|-----0-----0--------0-----|-----2-----2--------------|-----2--------------------|
D|--------2-----------------|--------------------------|-----------------0-----0--|--------------------------|
A|--3-----------3-----------|--------------3-----------|--0-----------------------|--3-----------------------|
E|--------------------------|--3-----------------------|--------------3-----------|--------------------------|





Refrain:

G7                           C                          G7    

e|--1-----------------1-----|--0-----------------0-----|--1-----------------1-----|--0-----------------0-----|
B|--------3-----3-----------|--------1-----1-----------|--------3-----3-----------|--------1-----1-----------|
G|-----0-----0-----0-----0--|-----0-----0-----0-----0--|-----0-----0-----0-----0--|-----0-----0-----0-----0--|
D|--------------------------|--------------------------|--------------------------|--------------------------|
A|--------------2-----------|--3-----------------------|--------------2-----------|--3-----------------------|
E|--3-----------------------|--------------0-----------|--3-----------------------|--------------0-----------|




    d           C              E           a              d           G

e|--1-----1-----0-----0-----|--0-----------------------|-----0--1-----------------|--------3--1--0-----------|
B|-----2-----2-----1-----1--|--------3-----1--------1--|--3--------3--1--0-----0--|--1--------0--1-----------|
G|--------------------------|-----1-----1-----2--------|--------------------2-----|-----2--------------------|
D|--0-----0-----------------|--------------------2-----|--0-----------------------|--------------------------|
A|--------------3-----3-----|--------------0-----------|--------------------------|--3-----------------------|
E|--------------------------|--0-----------------------|--------------3-----------|--------------------------|
Tap to rate this tab
# A B C D E F G H I J K L M N O P Q R S T U V W X Y Z