Fredrik Thordendals Special Defects - The Beginning Of The End Extraction tab

Band:  (Fredrik Thordendal's Special Defects)
Album: (Sol Niger Within Version 3.33)
Song:  (The Beginning Of The End Extraction)

Tuning B E A D G B E

Riff A (Intro, Half-distorted Sound)
|------------------------------------------------|
|------------------------------------------------|
|------------------------------------------------|
|------------------------------------------------|
|------------------------------------------------|
|------------------------------------------------|
|0--00--00--00--00--00--00--00--00--00--(pause)--|

Riff B
|-----------------------------------------------------|
|-----------------------------------------------------|
|-----------------------------------------------------|
|-----------------------------------------------------|
|11---11-11-11-9-11--9-11-11-----9--11--9-11119-11-11-|
|9----9--9--9--7-9---7-9--9------7--9---7-9-9-7-9--9--|
|9-00-9--9--9-07-9-007-9--9-0-0-07--9--07-9-9-7-9--9--|X2

Riff C
(Improvised Solo)
|----------------------------------|
|----------------------------------|
|----------------------------------|
|----------------------------------|
|-----------4---------4---------4--|
|--------506-------5-6-------506---|
|4--44--4------44---4--4-44-4------|X2

|----------------------------------|
|----------------------------------|
|----------------------------------|
|----------------------------------|
|-------0--------------------0-----|
|---------1--------1-0----------1--|
|0--00---0-04--00---0-40-00-0-04---|X2

Riff D
|------------------------|
|------------------------|
|------------------------|
|------------------------|
|-76-76---76-76---76-76--|
|-64-64---64-64---64-64--|
|054054--0540540-0540540-|X4

END
Tap to rate this tab
 
# A B C D E F G H I J K L M N O P Q R S T U V W X Y Z