Song name
# A B C D E F G H I J K L M N O P Q R S T U V W X Y Z

Free Chapel - Awesome God tab

1st Pattern:
e|--------------------------|
B|--------------------------|
G|--------------------------|
D|--------------------------|
A|-7-7-7-7-7-7-7-7----------|
E|-5-5-5-5-5-5-5-5----------|
   
e|--------------------------|
B|--------------------------|
G|--------------------------|
D|-----4---4-4--------------|
A|-5-5---5-----5-5----------|
E|--------------------------|
         repeat 1x

e|--------------------------|
B|--------------------------|
G|--------------------------|
D|-------7------------------|
A|-9-9-9---9-7-5------------|
E|--------------------------|

e|--------------------------|
B|--------------------------|
G|--------------------------|
D|-----4---4-4--------------|
A|---5---5-----5------------|
E|--------------------------|
   
e|--------------------------|
B|--------------------------|
G|--------------------------|
D|--------------------------|
A|-7-7-7-7-7-7-7-7----------|
E|-5-5-5-5-5-5-5-5----------|

e|--------------------------|
B|--------------------------|
G|--------------------------|
D|--------------------------|
A|-7-----------4------------|
E|-5-2-3-2-3-2--------------|


2nd Pattern:
e|--------------------------|
B|--------------------------|
G|--------------------------|
D|--------------------------|
A|-7-7-7-7-7-7-7-7----------|
E|-5-5-5-5-5-5-5-5----------|
   
e|--------------------------|
B|--------------------------|
G|--------------------------|
D|-----4---4-4--------------|
A|-5-5---5-----5-5----------|
E|--------------------------|
         repeat 1x

e|--------------------------|
B|--------------------------|
G|--------------------------|
D|-------7------------------|
A|-9-9-9---9-7-5------------|
E|--------------------------|

e|--------------------------|
B|--------------------------|
G|--------------------------|
D|-----4---4-4--------------|
A|---5---5-----5------------|
E|--------------------------|
   
e|--------------------------|
B|--------------------------|
G|--------------------------|
D|-7------------------------|
A|-7------------------------|
E|-5------------------------|

http://www.freechapel.org/
Tap to rate this tab
 
# A B C D E F G H I J K L M N O P Q R S T U V W X Y Z