Song name
# A B C D E F G H I J K L M N O P Q R S T U V W X Y Z

Free - Wishing Well tab

-------------------------------------------------------------------------------
			     Wishing Well - Free
-------------------------------------------------------------------------------
Tabbed by: bonzo_lives
Email: ian_vigilantes@yahoo.com

This is my first tab so see what you think.
The solo rhythm is not lined up and the solo is probly not right but its wot i play.
If u dont like it just mess about in the A minor pentatonic.

Tuning: Standard

intro
e|----------------------------------|
B|----------------------------------|
G|----------------------------------|
D|--2-0---2------------2-0---2---0--|
A|------2-0--2-0---2-------2-0---2--|
E|---------------3-0-------------3--|

Verse
  PM--------------
e|------------------------------------|
B|------------------------------------|
G|--------------------5---7---9----9--|
D|-2-2-2-2-2-2-2-2---5---7---9----9---|
A|-2-2-2-2-2-2-2-2--3---5---7----7----|
E|-0-0-0-0-0-0-0-0--------------------|

Chorus             x3        
e|-------------------|-----------|4th time
B|-------------------|-----------|go to
G|----5---7---9---9--|----5---7--|Intro
D|---5---7---9---9---|---5---7---|
A|--3---5---7---7----|--3---5----|
E|-------------------|-----------|

Bridge Intro
e|-------------------------------0---|
B|-------------------------------1---|
G|-------------------------------2---|
D|--2-0---2------------2-0---2---2---|
A|------2-0--2-0---2-------2-0---0---|
E|---------------3-0-----------------|

Bridge            x7
e|-1---3---5-5-5-5--|
B|-1---3---5-5-5-5--|
G|-2---4---5-5-5-5--|
D|-3---5---7-7-7-7--|
A|-3---5---7-7-7-7--|
E|------------------|

solo
e|-------------------------------------------------------------------------|
B|-------------------------------/20-20b22-20b22-20b22b20p17----17----17---|
G|-5-----5-5---5-7-7b9-7-5------------------------------------19----19-----|
D|--5-5/7-----7-------------7----------------------------------------------|
A|-3-----------------------------------------------------------------------|
E|-------------------------------------------------------------------------|

                      hold bend-------|    
e|-----------------------17---17--17--17-17--------------------------------|
B|---17---17-20-20b22-22---22---22--22---20b22-----------------------------|
G|-19---19-----------------------------------------------------------------|
D|-------------------------------------------------------------------------|
A|-------------------------------------------------------------------------|
E|-------------------------------------------------------------------------|

Rhythm
e|-------------------------------------------------------------------------|
B|-------------------------------------------------------------------------|
G|--5----------------------7-------------10-------12-------14--------------|
D|--5----------------------7-------------10-------12-------14--------------|
A|--3----------------------5-------------8--------10-------12--------------|
E|-------------------------------------------------------------------------|

Chorus 2
e|-------------|-----------------------------------------------------------|
B|-------------|-----------------------------------------------------------|
G|-------------|--------2-0----2-------------------------------------------|
D|-3--5--7-7-7-|-3--5-------2--0--2-0---2----------------------------------|
A|-3--5--7-7-7-|-3--5-----------------2-0----------------------------------|
E|-1--3--5-5-5-|-1--3------------------------------------------------------|

Outro Repeat til Fade
e|---------------------|
B|---------------------|
G|--2-0---2------------|
D|------2-0--2-0---2---|
A|---------------2-0---|
E|---------------------|


| /  slide up
| \  slide down
| h  hammer-on
| p  pull-off
| ~  vibrato
| +  harmonic
| x  Mute note
===============================================================================
Tap to rate this tab
# A B C D E F G H I J K L M N O P Q R S T U V W X Y Z