Song name
# A B C D E F G H I J K L M N O P Q R S T U V W X Y Z

Free - Heartbreaker tab

------------------------------------------------------------------------
             Heartbreaker - Free
------------------------------------------------------------------------

Tabbed by shane -92
Tuning standard (eadgbe)

             intro/verse

e|--------------------------------------------|
b|--------------------------------------------|
g|--------------5h7---------------------------|
d|-------0--3---5h7--3-----------3------------|   x7
a|--0--3----------------5--3--5-----5---------|
e|--------------------------------------------|


         chorus
                      Dmjr Cmjr    A#      A7   Amjr
e|-----------------------------------------5----5-----|
b|--------------------7-7--5-5--3-3-3-3----5----5-----|
g|------------5h7-----7-7--5-5--3-3-3-3----7----6-----|
d|------0--3--5h7--3--7-7--5-5--3-3-3-3----5----7-----|  x2
a|-0--3---------------5-5--3-3--1-1-1-1----7----7-----|
e|-----------------------------------------5----5-----|


i havent tabbed them out but the solos are all out of d-pentatonic scale
Tap to rate this tab
# A B C D E F G H I J K L M N O P Q R S T U V W X Y Z