Song name
# A B C D E F G H I J K L M N O P Q R S T U V W X Y Z

Free - Mourning Sad Morning tab

Hey guys, I was trying to learn this wonderful song and the only version I
could find was a good attempt but flawed so here it is. I think it's all 
correct but if you think I got a bit wrong let me know. enjoy learning the
song. :)

Im not sure if its originally in drop D but I think it adds to the chorus.

Intro 
0:00      x1    0:02      x4
E= |--------|    |----1-0-|
B= |--3-----|    |--3-----|
G= |--------|    |--------|
D= |0-------|    |0-------|
A= |--------|    |--------|
D= |--------|    |--------|


Verse 

0:11    x4       0:21     x1             0:28        x1
E= |----1-0-|     |---------------1-0-|  |----1-0-----------------|
B= |--3-----|     |-------------------|  |--3---------1-----------|
G= |--------|     |-------------2-----|  |----------0-----3--0----|
D= |0-------|     |-3--3-2--2-0-------|  |0-------------1--2------|
A= |--------|     |-------------------|  |--------3---------------|
D= |--------|     |-------------------|  |------------------------|


Bridge

0:37       x4
E= |----1-0-|
B= |--------|    
G= |--2-----|    
D= |0-------|   
A= |--------|   
D= |--------|   


Verse 

0:11    x4       0:21     x1             0:28        x1
E= |----1-0-|     |---------------1-0-|  |----1-0-----------------|
B= |--3-----|     |-------------------|  |--3---------1-----------|
G= |--------|     |-------------2-----|  |----------0-----3--0----|
D= |0-------|     |-3--3-2--2-0-------|  |0-------------1--2------|
A= |--------|     |-------------------|  |--------3---------------|
D= |--------|     |-------------------|  |------------------------|


Bridge

0:37       x4
E= |----1-0-|
B= |--------|    
G= |--2-----|    
D= |0-------|   
A= |--------|   
D= |--------|   



Verse 

0:11    x4       0:21     x1             0:28        x1
E= |----1-0-|     |---------------1-0-|  |----1-0-----------------|
B= |--3-----|     |-------------------|  |--3---------1-----------|
G= |--------|     |-------------2-----|  |----------0-----3--0----|
D= |0-------|     |-3--3-2--2-0-------|  |0-------------1--2------|
A= |--------|     |-------------------|  |--------3---------------|
D= |--------|     |-------------------|  |------------------------|


Bridge (pipes)

0:37               x2
E= |-1-1-1-1-0-0-0-0-|
B= |-3-3-3-3-2-2-2-2-|    
G= |-2-2-2-2-0-0-0-0-|    
D= |-0-0-0-0-2-2-2-2-|   
A= |---------0-0-0-0-|   
D= |-----------------|   



Chorus
 
2:06                                                                   x2  
E= |--1----1--3----3--1----1--0--0-3-0-------------------------(-----1-10-)
B= |--3----3--1----1--1----1--2--------2-----------------------(----------)  
G= |--2----2--0----0--2----2--0--------------------------------(---2------)  
D= |--0----0--2----2--3----3--2------------0-------------------(-0--------)
A= |----------3----3----------0---------------3-2-0------------(----------)
D= |---------------------------------------------------3𦌼---(----------)

From here on there's nothing new, enjoy playing and thank you for reading this tab. :)
Tap to rate this tab
 
# A B C D E F G H I J K L M N O P Q R S T U V W X Y Z