Guitaretab - guitar tabs
Song name
# A B C D E F G H I J K L M N O P Q R S T U V W X Y Z

Free - Ill Be Creepin tab

-------------------------------------------------------------------------------
			     SONG NAME - Band Name
-------------------------------------------------------------------------------
Tabbed by: Mike Jericault
Email: mikelux27@aim.com

Tuning: Standard

Verse
e|---------------------------------------------------------------------------| \
B|---------------------------------------------------------------------------|  |
G|-----------------------------------------------7h8-------------------------|  |x12
D|-----------7-------------------------------7---------9---------------------|  |
A|------7h9-----------------------------7h9----------------------------------|  |
E|---7-------------------------------7---------------------------------------| /

Pre-chorus
e|--------------------------------------------|------------------------------|
B|--------------------------------------------|------------------------------|
G|--------------------------------------------|------------------------------|
D|----7/9---7------------7-9-7----------------|------2---------2-------------|
A|--------------8p9----------------9\---------|--2/4---4p2-------------------|
E|--------------------------------------2-0---|-------------0----------------|
[ Tab from: http://www.guitaretab.com/f/free/53575.html ]
Chorus
e|----------------------------||---------------------------------------------|
B|----------------------------||---------------------------------------------|
G|----------------------------||---------------------------------------------|
D|-------9---------------6----||---------9---------9\------------------------|
A|---7h9-------------6h7------||-----7h9-----------9-|let ring---------------|
E|-7-------7-------7-------7--||---7-------7-------7/------------------------|

Solo
e|----------------------------------------17-17-------17^--------------------|
B|---15^---17^--17^17^17^17^17^17^-17^-17^---17--15--------15-15-------------|
G|-16---16-----------------------------------------16------------16^---------|
D|---------------------------------------------------------------------------|
A|---------------------------------------------------------------------------|
E|---------------------------------------------------------------------------|

e|-----7---------------------------------------------------------------------|
B|-7-7---10-10^------10-10^--10-10^--12^--10h12--10--------------------------|
G|---------------------------------------------------------------------------|
D|---------------------------------------------------------------------------|
A|---------------------------------------------------------------------------|
E|---------------------------------------------------------------------------|

| ^  bend
| /  slide up
| \  slide down
| h  hammer-on
| p  pull-off
| ~  vibrato
| +  harmonic
| x  Mute note
===============================================================================
Related for Ill Be Creepin tab
Advertisement will be closed in 10 seconds