Guitaretab - guitar tabs
Song name
# A B C D E F G H I J K L M N O P Q R S T U V W X Y Z

Free - Over The Green Hills Part 1 tab

Song-Over The Green Hills Pt.1 (Rodgers)
Band-Free
Tabbed by-Street Fighter

[ Tab from: http://www.guitaretab.com/f/free/73319.html ]
e|---------------------------------------------------------|
b|---------------------------------------------------------|
g|---------------------------------------------------------|
d|---------------------------------------------------------|
a|----2---5---4---3-----2---5---4---3-----2---5---4---3----|
e|--0---0---0---0-----0---0---0---0-----0---0---0---0------|

e|-----------------------------------2---------------------|
b|--------3--------2--------1------------------------------|
g|------0--------2--------0--------2-----------------------|
d|-------------2--------2--------1-------------------------|
a|----2------0--------3--------2---------------------------|
e|--3------------------------------------------------------|
Related for Over The Green Hills Part 1 tab
Advertisement will be closed in 10 seconds