Song name
# A B C D E F G H I J K L M N O P Q R S T U V W X Y Z

Freedom Worship - The Cause tab

    Freedom Worship - The Cause

150bpm

INTRO - Come in at (0:05)

e |------------------------------------|
B |----12-------12-------12------------|
G |-------14-------14-------14----14---| x2
D |--14------14-------14-------14------|
A |------------------------------------|
E |------------------------------------|

VERSE (0:13), (2:07)

e |---------------------------------------------------------------------------------------|
B |-----12-----------------10---------------------------------------------12--------------|
G |--------14-----------------11-------------9--7---7h9---9---(x2)-----------14-----------| x2
D |--14-----------------12-----------------7------7-----7---------------14----------------|
A |----------LET RING-----------LET RING----------------------------------------LET RING--|
E |---------------------------------------------------------------------------------------|

PRE-CHORUS (1:03), (2:33)

e |-----------------7----|
B |--10---10---10---10---|
G |--11---12---11---9----| x4
D |--12---12---12---7----|
A |----------------------|
E |----------------------|

CHORUS (1:29), (2:58)
e |----------------------------- O C T A V E S -------------------------------|
B |---------------------------------------------------------------------------|
G |--9---------12--------11--12--------14--------11--------12-------14--------| x2
D |--x---(x6)--x---(x2)--x---x---(x5)--x---(x2)--x---(x4)--x---(x4)--x---(x8)-|
A |--7---------10--------9---10--------12--------9---------10--------12-------|
E |---------------------------------------------------------------------------|

BRIDGE (3:24)

e |---------------------------------------------|
B |--14-----12-----11-----12-----14-------------|
G |--x------x------x------x------x--------------| x8
D |--12-----10-----9------10-----12-------------|
A |---------------------------------------------|
E |---------------------------------------------|

e |---------------------------------------------|
B |---------------------------------------------|
G |----------------------------14---------------|
D |----------------------------x----------------|
A |-----ON 8th TIME END ON-----12---------------|
E |---------------------------------------------|
Tap to rate this tab
# A B C D E F G H I J K L M N O P Q R S T U V W X Y Z