Song name
# A B C D E F G H I J K L M N O P Q R S T U V W X Y Z

Freedom Worship - Almighty tab

    Freedom Worship - Almighty

150bpm

Intro - Come in at (0:06) play again at (1:36)

e |-----------------------------------------------------------|
B |--10----13-----6-------------------------------------------|
G |--9-----12-----5-------REPEAT 4 TIMES----------------------|
D |--7-----10-----3-------------------------------------------|
A |-----------------------------------------------------------|
E |-----------------------------------------------------------|

VERSE (0:16), (1:49)

e |-----------------------------------------------------------|
B |---------------10------------------------------------------|
G |----SWELLS-----9-------------------------------------------|
D |---------------7-------------------------------------------|
A |-----------------------------------------------------------|
E |-----------------------------------------------------------|

PRE-CHORUS (0:45), (2:14)

e |-------------------------------------------------|
B |--10-----------------10--------------------------|
G |-----9---------5----------9---------7--5---5h7---| x2
D |-------7--5s7-------------7--5--5------5---------|
A |-------------------------------------------------|
E |-------------------------------------------------|

CHORUS (1:10), (2:40)

e |-----------------------------------------------------------|
B |--10-----13---12---13-----15-----13---12-------------------|
G |--9------12---12---12-----14-----12---12-------------------| x1 on 1st Verse
D |--7------10---10---10-----12-----10---10-------------------| x2 on 2nd Verse
A |-----------------------------------------------------------|
E |-----------------------------------------------------------|

e |---------------------------------|
B |------ON 2ND TIME,-----------13--|
G |----BEFORE BRIDGE END ON-----12--| 
D |-----------------------------10--| 
A |---------------------------------|
E |---------------------------------|

BRIDGE (3:44)

e |-----------------------------------|
B |--5-----3-----6-----5--------------|
G |--x-----x-----x-----x----REPEAT----|
D |--5-----5-----5-----5--------------|
A |-----------------------------------|
E |-----SWELLS------------------------|

BRIDGE 2 (5:39)

e |---------------------------------------------------------------------------|
B |--6--6--6--5--5--3--3--5--6--6--6--5--5--3--3--5--6--6--6--6--6--6--6--6---|
G |---------------------------------------------------------------------------|
D |---------------------------------------------------------------------------|
A |---------------------------------------------------------------------------|
E |---------------------------------------------------------------------------|

e |--------------------------|------------------------------------------------|
B |--5--5--5--5--5--5--5--5--|--8--8--8--8--10--10--10--10--10--10--10--10----|
G |--------------------------|------------------------------------------------|
D |--------------------------|------------------------------------------------|
A |-----------5 Times--------|--ON 6th Time (6:49)----------------------------|
E |--------------------------|------------------------------------------------|

e |-----------------------------------------------------------|
B |--13--13--13--13--13--13--13--13---------------------------|
G |-----------------------------------------------------------|
D |-----------------------------------------------------------|
A |-----------------------------------------------------------|
E |-----------------------------------------------------------|

BRIDGE 3 (6:56)

e |-----------------------------------------------------------|
B |--13--------12--------6---------5---------6----------------|
G |--x---(x8)--x---(x8)--x---(x8)--x---(x5)--x---(x3)---------| x4
D |--12--------12--------5---------5---------5----------------|
A |-----------------------------------------------------------|
E |-----------------------------------------------------------|

e |---------------------|
B |-------------5-------|
G |-------------x-------|
D |-------------5-------|
A |---END ON------------|
E |---------------------|
Tap to rate this tab
# A B C D E F G H I J K L M N O P Q R S T U V W X Y Z