Song name
# A B C D E F G H I J K L M N O P Q R S T U V W X Y Z

Freedom Worship - Heart And Soul tab

    Freedom Worship - Heart and Soul

175bpm (Quarter Note Delay)

Verse (Let Delay repeats ring out)

e |----------------------------------------------------------|
B |--14----17----16----12----10----9-------------------------|
G |--13----16----x-----11----9-----x----REPEAT---------------|
D |--11----14----14----9-----7-----7-------------------------|
A |----------------------------------------------------------|
E |----------------------------------------------------------|

Chorus

e |---------------11------------------------------------|
B |------14-----14--14----------------------------------|
G |----13-----13------13---9-11---9-11-9----------------| x2
D |--11-----11-----------11-----11------11--------------|
A |-----------------------------------------------------|
E |-----------------------------------------------------|

Verse 2

Chorus

Interlude (Same As Chorus) x1

Bridge

On 3rd 'This isn't the end', play...

e |--------------------------------------------------------------|
B |--17---16---12-----------17---16---12---14-x4---14b16---12s---|
G |--------------------------------------------------------------|
D |----4 Times-----then...---------------------------------------|
A |--------------------------------------------------------------|
E |--------------------------------------------------------------|

Chorus

Outro (Same As Chorus) x4
Tap to rate this tab
# A B C D E F G H I J K L M N O P Q R S T U V W X Y Z