Song name
# A B C D E F G H I J K L M N O P Q R S T U V W X Y Z

Freedom Worship - Heart Made Whole tab

    Freedom Worship - Heart Made Whole

140bpm

Intro

e |-----------------------------------------------------------|
B |-----------------------------------------------------------|
G |-----14--14----14--14----14----13--13----13--13----13------|
D |--14--------14--------14----14--------14--------14----14---|
A |-----------------------------------------------------------|
E |-----------------------------------------------------------|

e |-----------------------------------------------------------|
B |-----------------------------------------------------------|
G |--11--11----11--11-----8---8---8h9--9--9----14--14---------|
D |---------14--------14----9---9-----------14--------14------|
A |-----------------------------------------------------------|
E |-----------------------------------------------------------|

e |-----------------------------------------------------------|
B |-----------------------------------------------------------|
G |--14--14----16----14----13h14p13--------11-11----11--11----|
D |---------14----14----14----------14--14-------14-----------|
A |-----------------------------------------------------------|
E |-----------------------------------------------------------|

e |---------------------------------|
B |---------------------------------|
G |------9---9---9s11--11--11--11s--|
D |--14----9---9--------------------|
A |---------------------------------|
E |---------------------------------|

Verse

Cut out for first half of verse..

Then on second half..

e |-----------------------------------------------------------|
B |--10------9-------7----------------------------------------|
G |--9--x8---9--x8---x--x16-----------------------------------|
D |--7-------7-------4----------------------------------------|
A |-----------------------------------------------------------|
E |-----------------------------------------------------------|

Pre-Chorus

Same as verse. First one FULL TIME, Second and Third ones HALF TIME

Chorus (Same as INTRO)

Verse 2

Pre-Chorus

Chorus

Verse 3 

Pre-Chorus

Chorus

Breakdown

e |--------------------------|
B |--------------------------|
G |----------11/s------------| REPEAT
D |--------------------------|
A |--------------------------|
E |--------------------------|

Bridge

e |-----------------------------------------|
B |--15--(x16)---14--(x16)---12--(x32)------|
G |-----------------------------------------| x2
D |-----------------------------------------|
A |-----------------------------------------|
E |-----------------------------------------|

Chorus (HALF TIME) x2
       (FULL TIME) x1
Tap to rate this tab
# A B C D E F G H I J K L M N O P Q R S T U V W X Y Z