Song name
# A B C D E F G H I J K L M N O P Q R S T U V W X Y Z

Freelance Johnson - Kali4na tab

thiss is a totally hawt song, LOL.  U can p;lay it 2 ROFL.  OMG DROP D lol

InTRo
E-------------------------------- R
B-------------------------------- E
G--2-2-3-3-0-0-2-----2-3-3-0--2-- p
D-------------------------------- E
A-------------------------------- a
D-------------------------------- t

VERse

E-------------------------------- R
B-------------------------------- e
G-------------------------------- p
D-5-5-6-6-3-5---5-6-6-3-5-------- E
A-5-5-6-6-3-5---5-6-6-3-5-------- A
D-5-5-6-6-3-5---5-6-6-3-5-------- t

ChoRUS

E---------------------------5---5---5---5---5---5- r
B---------------------------5h7-5h7-5---5h7-5h7-5- e
G------------------------------------------------- p
D-5-5-6-6-3-5---5-6-6-3-5------------------------- E
A-5-5-6-6-3-5---5-6-6-3-5------------------------- A
D-5-5-6-6-3-5---5-6-6-3-5------------------------- t

omg hav a gud PALY>

ITznOT DONE LOL
Tap to rate this tab
 
# A B C D E F G H I J K L M N O P Q R S T U V W X Y Z