Song name
# A B C D E F G H I J K L M N O P Q R S T U V W X Y Z

Freelance Whales - Generator First Floor tab

FREELANCE WHALES - GENERATOR (FIRST FLOOR)

Tabbed by Sam Wallis (sam_8orbetter@hotmail.co.uk)

CAPO 1st
What a riff :P

e|--------------0---------------0--------------0---3/5/3-----1/0-------------|
B|-----1-----1---------1-----1--------1-----1------------5/3-----3/1---------|
G|--------0---------------0--------------0-----------------------------------|x 4 (don't
D|---------------------------------------------------------------------------| play riff 4th time)
A|--3---------------3--------------3-----------------------------------------|
E|---------------------------------------------------------------------------|

VERSE:

    C
e|--------------0---------------0--------------0---3/5/3-----1/0-------------|
B|-----1-----1---------1-----1--------1-----1------------5/3-----3/1---------|
G|--------0---------------0--------------0-----------------------------------|
D|---------------------------------------------------------------------------|  
A|--3---------------3--------------3-----------------------------------------|
E|---------------------------------------------------------------------------|
    Am
e|--------------0---------------0--------------0---3/5/3-----1/0-------------|
B|-----1-----1---------1-----1--------1-----1------------5/3-----3/1---------|
G|--------2---------------2--------------2-----------------------------------|
D|---------------------------------------------------------------------------|  
A|--0---------------0--------------0-----------------------------------------|
E|---------------------------------------------------------------------------|
    F
e|--------------0---------------0--------------0---3/5/3-----1/0-------------|
B|-----1-----1---------1-----1--------1-----1------------5/3-----3/1---------|
G|--------2---------------2--------------2-----------------------------------|
D|--3---------------3--------------3-----------------------------------------|  
A|---------------------------------------------------------------------------|
E|---------------------------------------------------------------------------|
    C
e|--------------0---------------0--------------0---3/5/3-----1/0-------------|
B|-----1-----1---------1-----1--------1-----1------------5/3-----3/1---------|
G|--------0---------------0--------------0-----------------------------------|
D|---------------------------------------------------------------------------|  
A|--3---------------3--------------3-----------------------------------------|
E|---------------------------------------------------------------------------|
Tap to rate this tab
 
# A B C D E F G H I J K L M N O P Q R S T U V W X Y Z