Freelance Whales - Hannah chords

Highlighted       Show chord diagrams
Freelance Whales
"Hannah"

   C#  F#  G#  Bb
e|--------------------------------|
b|--------------------------------|
g|-10--3---5----------------------|
d|-11--4---6---8------------------|
a|-11--4---6---8------------------|
e|-9---2---4---6------------------|


Riff:
e|----------------------------------------|
b|----------------------------------------|
g|-------6-------5-------6-6--------------|
d|---3-6-----3-6-----3-6-----6-6-6--------|
a|-4-------4-------4----------------------|
e|----------------------------------------|


C# / Riff 
Do me this solid
If you would pretty lady
Please grab me a martini
And meet me on the balcony
I've prepared a light show
You could fake a melody
We could argue over where and when
the cymbal hits should be

C# / Riff

C# / Riff
Hannah takes the stairs
And I usually take the elevator
Every now and then she offers me
A lemon Now and Later
Please don't play the match maker
Please don't be a player hater
If you dig her recent work
You should go congratulate her

F# G# C# (x2)
And if you're partial to the night sky
If you're vaguely attracted to rooftops

F# G# Bb C#
Hannah takes the stairs
Cause she can't tell that 
its a winding spiral case
F# G# C#
Is she right side up
Or upside-down?

C# / Riff

C# / Riff
So Hannah let your roots grow
Let your blue legs show
If I need to take a breath
Then you can take a trumpet solo
I'll work on the limbs if 
You work on the torso
If it gets to be too much then
You can lend a helping hand


F# G# C# (x2)
And if you're partial to the night sky
If you're vaguely attracted to rooftops

F# G# Bb C#
Hannah takes the stairs
Cause she can't tell that 
its a winding spiral case
F# G# C#
Is she right side up
Or upside-down?

F# G# Bb C#
Hannah takes the stairs
Cause she can't tell that 
its a winding spiral case
F# G# C#
Is she right side up
Or upside-down?

End on C#
Tap to rate this tab
 
# A B C D E F G H I J K L M N O P Q R S T U V W X Y Z