Song name
# A B C D E F G H I J K L M N O P Q R S T U V W X Y Z

Freelance Whales - Kilojoules tab

-------------------------------------------------------------------------------
                             KILOJOULES - Freelance Whales
-------------------------------------------------------------------------------
Tabbed by: Big D

Tuning:EADGBe


Synth and Glockenspiel Intro:
e|---------------------------------------------------------------------------|
B|---------------------------------------------------------------------------|
G|----------4-5-7-4--4-----7-4--4---4-----7-4---4-----------5-4--------------|
D|----4-5-7------------7-5--------7---7-5-----7-----5----5-------------------|
A|5-7---------------------------------------------7----7---------------------|
E|---------------------------------------------------------------------------|


Guitar Intro and Verse (the picking pattern is a little tricky to show here 
so i'm gonna leave it up to you guys):
e|---------------------|-----------------------------------------------------|
B|---------------------|-----------------------------------------------------|
G|-----44---44-----44--|---55----55------55----------------------------------|
D|-----55---55-----55--|---55----55------55----------------------------------|
A|---------------------|33-----3------33-------------------------------------|
E|-3-3-----3----33-----|-----------------------------------------------------|


Chorus:
e|------------------------33333-3333-----------------------------------------|
B|------------------------33333-3333-----------------------------------------|
G|-55555-5555--77777-7777-44444-4444-----------------------------------------|
D|-55555-5555--77777-7777-55555-5555-----------------------------------------|
A|-33333-3333--55555-5555-55555-5555-----------------------------------------|
E|------------------------33333-3333-----------------------------------------|

There's another little solo going on over the chorus that I wasn't able to
pick up. I'll keep trying and see if I can't post it on here later.

The climbs that the glockenspiel and synth do before the chorus are the same
as the first climb in the intro.
Tap to rate this tab
# A B C D E F G H I J K L M N O P Q R S T U V W X Y Z